Lucky Boys Confusion - Slip Chords & Tabs

 

Slip Chords & Tabs

Lucky Boys Confusion Chords & Tabs

Version: 2 Type: Tab 0 ratings
1 star 2 stars 3 stars 4 stars 5 stars
comments

Slip Tab

   
-------------------------------------------------------------------------------
			     Slip - Lucky Boys Confusion
-------------------------------------------------------------------------------
Tabbed by: Lreynolf
Email: Lreynolf@hotmail.com

Tuning: Standard (e B G D A e)

##Intro##

e|------------------------------------------------------------------------|
B|-----------------------------5------------------------------------------|
G|-7-6-4/6\4-22----7-6-4/6\4-2----7-6-4/6\4-22--1/2-1-----2-1-------------|
D|----------------------------------------------------2-4-----2-4---------| x2*
A|------------------------------------------------------------------------|
E|------------------------------------------------------------------------|

* 2nd time around play the last 4 notes again

##Verse##

e|---------------------------------------------------------------------------|
B|---------------------------------------------------------------------------|
G|-4-4xxx-4xx-4xxx-8-8xxx-8xx-8xxx-4-4xxx-4xx-4xxx-8________-----------------|
D|-4-4xxx-4xx-4xxx-8-8xxx-8xx-8xxx-4-4xxx-4xx-4xxx-8________-----------------|
A|-2-2xxx-2xx-2xxx-6-6xxx-6xx-6xxx-2-2xxx-2xx-2xxx-6________-----------------|
E|---------------------------------------------------------------------------|

##PreChorus##

e|---------------------------------------------------------------------------|
B|---------------------------------------------------------------------------|
G|-------4---------4---------4---------4---------8---------8---------8-------|
D|-------4---------4---------4---------4---------8---------8---------8-------|
A|(2)(2)-2--(2)(2)-2--(2)(2)-2--(2)(2)-2--(6)(6)-6--(6)(6)-6--(6)(6)-6-------|
E|---------------------------------------------------------------------------|
[ Tab from: http://www.guitartabs.cc/tabs/l/lucky_boys_confusion/slip_tab_ver_2.html ]
e|---------------------------------------------------------------------------|
B|---------------------------------------------------------------------------|
G|-------8---------4---------4---------4---------4--8888-66-10-10------------|
D|-------8---------4---------4---------4---------4--8888-66-10-10------------|
A|(6)(6)-6--(2)(2)-2--(2)(2)-2--(2)(2)-2--(2)(2)-2--6666-44-8--8-------------|
E|---------------------------------------------------------------------------|

##Chorus##

e|---------------------------------------------------------------------------|
B|---------------------------------------------------------------------------|
G|-2__________-4__________-2__________-2__________-22x2__________------------|
D|-2__________-4__________-2__________-2__________-22x2__________------------|
A|-0__________-2__________-0__________-0__________-00x0__________------------|
E|---------------------------------------------------------------------------|

e|---------------------------------------------------------------------------|
B|---------------------------------------------------------------------------|
G|-4__________-2__________-2__________---------------------------------------|
D|-4__________-2__________-2__________---------------------------------------|
A|-2__________-0__________-0__________---------------------------------------|
E|---------------------------------------------------------------------------|

##Acoustic Solo (End of Song)##

e|---------------------------------------------------0-----------------------|
B|-----------------------------------4-------9-------7-5-----------7---------|
G|-------4-6---------7-------2-----6---6-7-6---------7---6\4/6-4/6-----------|
D|-2-5-2-----4-4-6-4-------2-----5-------------5-5-5-5-----------------------|
A|---------------------2-2-----4---------------------------------------------|
E|---------------------------------------------------------------------------|

e|--------------------------|
B|-------------------7------|
G|-4-5-7-4-4/5---4/6---6/8--|   This is where the reggae protion of the song
D|--------------------------|   starts, not much guitar work, so I didn't 
A|--------------------------|   include it.
E|--------------------------|

Questions, comments, critique, etc. - email me, please. This is my first tab, and
I'd like to know things to do better or what you thought of it, etc.
Later all.
Peace

james

| /  Slide up
| \  Slide down
| h  Hammer-on
| p  Pull-off
| ~  Vibrato
| +  Harmonic
| x  Mute note
| _  Let ring
|(#) Palm mute
=========================================================================
Comments