Lucky Boys Confusion - Slip Perfect Chords & Tabs

 

Slip Perfect Chords & Tabs

Lucky Boys Confusion Chords & Tabs

Version: 1 Type: Tab 1 rating
1 star 2 stars 3 stars 4 stars 5 stars
comments

Slip Perfect Tab

   
Song Title: Slip/Perfect
Artist: Lucky Boys Confusion
Album: Throwing the Game

Tabbed By: Alias_the_Archangel

Tuning: Drop D (DADGBe)

Intro: (Clean, Finger-Picked)
    C#m             A Asus2 A       C#m A Asus2 A       C#m A Asus2 A
e|---------------||-------------------------------------0-------------------------|
B|-----3-----3---||*--4--2---0h2----2-----3--2---0h2----------3--2---0h2----------|
G|------4-----4--||---3--2---2-2--2-------4--2---2-2--2-------4--2---2-2--2-------|
D|---------------||---------------------------------------------------------------|
A|---2-----2-----||*--2--0-0-0-0-0-0------2--0-0-0-0-0-0------2--0-0-0-0-0--------|
D|---------------||---------------------------------------------------------------|

            E               E         [after 2nd time]  A6 G  A
e|-------------0---------------0--||--------------------2--3--0-------------------|
B|-------------0---------------0-*||--------------------2-----2-------------------|
G|--------------------------------||--------------------2-----2-------------------|
D|--0h5-4-0h2-------0h5-4-0h2-----||----------------------------------------------|
A|--0h5-4-0h2-------0h5-4-0h2----*||----------------------------------------------|
D|--0h5-4-0h2-0-----0h5-4-0h2-0---||------------------0---------------------------|

Verse: (w/ Distortion, Pick)
    G                       B                           G┬╣                  B[hold]
e||-------------------------------------------------||----------------------------|
B||*-----------------------------------------------*||----------------------------|
G||-------------------------------------------------||----------------------------|
D||--5-5--5--5-5--5--5-5-5---9-9--9--9-9--9--9-9-9--||--5-5--5--5-5--5--5-5-5---9-|
A||*-5-5--5--5-5--5--5-5-5---9-9--9--9-9--9--9-9-9-*||--5-5--5--5-5--5--5-5-5---9-|
D||--5-5--5--5-5--5--5-5-5---9-9--9--9-9--9--9-9-9--||--5-5--5--5-5--5--5-5-5---9-|
[ Tab from: http://www.guitartabs.cc/tabs/l/lucky_boys_confusion/slip_perfect_tab.html ]
     G                            B [1st time]
e||-----------------------------------------------------------||------------------|
B||*---------------------------------------------------------*||------------------|
G||-----------------------------------------------------------||------------------|
D||--5-5-5--5-5-5--5-5-5--5-5-5---9-9-9--9-9-9--9-9-9--9-9-9--||------------------|
A||*-5-5-5--5-5-5--5-5-5--5-5-5---9-9-9--9-9-9--9-9-9--9-9-9-*||------------------|
D||--5-5-5--5-5-5--5-5-5--5-5-5---9-9-9--9-9-9--9-9-9--9-9-9--||------------------|

                               Chorus:
    B [2nd time]                      A   B   A   G
e|--------------------------------||----------------------------------------------|
B|--------------------------------||----------------------------------------------|
G|--9-9-9-9-7-7-10-10-------------||----------------------------------------------|
D|--9-9-9-9-7-7-10-10-------------||--7---9---7---5-------------------------------|
A|--9-9-9-9-7-7-10-10-------------||--7---9---7---5-------------------------------|
D|--------------------------------||--7---9---7---5-------------------------------|

Outro: (Clean, Finger-Picked)            "Perfect": (Reggae Style, 4 of each note)
     C#m     C#m/F#                      Gm/D   C#m
e||----------------2----||---------------3------2---------------------------------|
B||*------3------------*||---------------3------3---------------------------------|
G||-----4-------4-------||---------------3------4---------------------------------|
D||----4-4-----4-4------||--------------------------------------------------------|
A||*-2-----------------*||--------------------------------------------------------|
E||----------4----------||--------------------------------------------------------|

Notes
-------------------------------------
┬╣Listen to the song to see when to play this section.  It is on the 1st round
   through during the intro, on the 3rd for the verses.

I laid out the triplets in the verse for those who have no rhythm, the rest of the
   strumming is for you to figure out, it's not difficult.
Sorry no solo, have to leave something to freestyle with :)

During the outtro, before the bassline of "Perfect" kicks in, a second guitar is
   also playing over the top of what I've tabbed.  If you happen to have a second
   guitarist, that part shouldn't be too hard to figure out.

If you want to print this, I suggest copying just the tab or just the lyrics to
   notepad then printing, you'll save paper ;)

Of course, this tab represents my interpretation of the song and all that legal
   mumbo jumbo blah blah blah.

Questions?  E-mail me: alias_83@hotmail.com
Comments