Lucky Boys Confusion - Saturday Night Chords & Tabs

 

Saturday Night Chords & Tabs

Lucky Boys Confusion Chords & Tabs

Version: 1 Type: Bass Tab 0 ratings
1 star 2 stars 3 stars 4 stars 5 stars
comments

Saturday Night Bass Tab

=================================================
 Saturday Night - Lucky Boys Confusion
=================================================

Tabbed by Joey Meeuwisse (rmdgs@hotmail.com)

Nice song, fun to play! The Lucky Boys rule!

Standard tuning.


Intro (Guitar plays 4 bars first then bass enters)

G|--------------------------------------------------|
D|--------------------------------------------------|
A|-5~-----------------------------------------------|
E|----------------------3-2-3-2---------------------|

Intro2 (Play 2 times)

G|--------------------------------------------------|
D|-----------------4-44-44-5-55-55------------------|
A|-5-55-55-7-77-77----------------------------------|
E|--------------------------------------------------|

Verse

G|--------------------------------------------------|
D|--------------------------------------------------| 
A|-55555555-----------------------------------------|
E|----------55555555-22222222-33333333--------------| Play 3 times then play

G|--------------------------------------------------|
D|--------------------------------------------------|
A|-55555555-----------------------------------------|
E|----------55555555-2~-----------------------------|


Chorus (Play 4 times)

G|--------------------------------------------------|
D|--------------------------------------------------|
A|---5-5---2-----------4-------2--------------------|
E|-5---------0---2-2-2---3-3-3----------------------|

Bridge
[ Tab from: http://www.guitartabs.cc/tabs/l/lucky_boys_confusion/saturday_night_btab.html ]
G|--------------------------------------------------|
D|--------------------------------------------------|
A|--------------------------------------------------|
E|-5~-7~-5~-7~-5~-7~-5~---3-2-3-2-------------------|


Play Intro2.

Play Verse.

Play Chorus.

Play Bridge.


Then:

G|--------------------------------------------------|
D|-----------------4-44-44-5-55-55------------------|
A|-5-55-55-7-77-77----------------------------------| Play 3 times
E|--------------------------------------------------|

Then play:

G|--------------------------------------------------|
D|-----------------4-44-44--------------------------|
A|-5-55-55-7-77-77----------------------------------|
E|--------------------------------------------------|

After that:

G|--------------------------------------------------|
D|--------------------------------------------------|
A|---------------55---------------------------------| Play 7 times
E|-33-----33----3-----------------------------------|


Then:

G|--------------------------------------------------|
D|--------------------------------------------------|
A|--------------------------------------------------|
E|-33-----33----333---------------------------------|


Outro: (same as Intro2 but just the first notes)

G|--------------------------------------------------|
D|-----------------4-------5------------------------|
A|-5-------7----------------------------------------|  Repeat untill fade out
E|--------------------------------------------------|
Comments