Lucky Boys Confusion - Hey Driver Chords & Tabs

 

Hey Driver Chords & Tabs

Lucky Boys Confusion Chords & Tabs

Version: 1 Type: Tab 0 ratings
1 star 2 stars 3 stars 4 stars 5 stars
comments

Hey Driver Tab

Song: Hey Driver
Artist: Lucky Boys Confusion


------------------------------------------------------------
------------------------------------------------------------
------------------------------------------------------------
---5----55---5------------5-----3------5-----3------5-----3-
---3----33---3---------5--3--3--1---5--3--3--1---5--3--3--1-
-----------------------3-----1------3-----1------3-----1----


-----------------------------------
-----------------------------------
-----------------------------------
----------5555----------3333-------
---5555---3333---3333---1111-------
---3333----------1111--------------
		
-----------------------------------
-----------------------------------
-----------------------------------
----------5555----------3333-------
---5555---3333---3333---1111-------
---3333----------1111--------------

-------------------------------------------------
-------------------------------------------------
-------------------------------------------------	
--------5-----3------5-----3------5-----3--------
-----5--3--3--1---5--3--3--1---5--3--3--1--------
-----3-----1------3-----1------3-----1-----------


-------------------------------------------------
-------------------------------------------------
-------------------------------------------------	
--------5-----3------5-----3------5-----3--------
-----5--3--3--1---5--3--3--1---5--3--3--1--------
-----3-----1------3-----1------3-----1-----------


---------------------    
---------------------
---------------------
-----5---------------
-----3-----3---------
-----------1---------
[ Tab from: http://www.guitartabs.cc/tabs/l/lucky_boys_confusion/hey_driver_tab.html ]
no guitar "west bound"
		
------------------
------------------
------------------
---333333---------
---111111---------
------------------
		

-------------------------------------------------
-------------------------------------------------
-------------------------------------------------	
--------5-----3------5-----3------5-----3--------
-----5--3--3--1---5--3--3--1---5--3--3--1--------
-----3-----1------3-----1------3-----1-----------


-------------------------------------------------
-------------------------------------------------
-------------------------------------------------	
--------5-----3------5-----3------5-----3--------
-----5--3--3--1---5--3--3--1---5--3--3--1--------
-----3-----1------3-----1------3-----1-----------

		
-------------------------------------------------
-------------------------------------------------
-------------------------------------------------
------------33----5------------------------------
---3--33----11----3------------------------------
---1--11-----------------------------------------


-------------------------------------------------
-------------------------------------------------
-------------------------------------------------
------------33----5------------------------------
---3--33----11----3------------------------------
---1--11-----------------------------------------

-------------------------------------------------
-------------------------------------------------
-------------------------------------------------
------------33----5------------------------------
---3--33----11----3------------------------------
---1--11-----------------------------------------

by ash
Comments