Lucky Boys Confusion - Broken Chords & Tabs

 

Broken Chords & Tabs

Lucky Boys Confusion Chords & Tabs

Version: 1 Type: Tab 0 ratings
1 star 2 stars 3 stars 4 stars 5 stars
comments

Broken Tab

   
******************************************************************************************
* LUCKY BOYS CONFUSION - COMMITMENT - BROKEN                                             *
******************************************************************************************
* Tabbed by Nick Schmoyer, January 3, 2004                                               *
******************************************************************************************

INTRO:

(Part A)
e|----------------------------------------
B|----------------------------------------
G|--7--7-7-7--7-7-------------------------
D|--4--4-4-0--0-0-2--4-4-2-2--4-4---------
A|----------------2--2-2-2-2--2-2---------
E|----------------------------------------

(Part B)
e|--------------------------------------------
B|--------------------------------------------
G|--------7--7-7--2--4-4--2-2--4-4------------
D|-4--4-4-7--7-7--2--4-4--2-2--4-4------------
A|-4--4-4-5--5-5--2--2-2--2-2--2-2------------
E|-2--2-2-------------------------------------

VERSE:

e|-------------------------------------------------------
B|-------------------------------------------------------
G|---------7-7-7-2-2-----4-4-4---------7-7-7-2-2-2-------
D|-4-4-----7-7-7-2-2-----4-4-4-4-4-----7-7-7-2-2-2-2-2-2-
A|-4-4-----5-5-5-0-0-----2-2-2-4-4-----5-5-5-0-0-0-2-2-2-
E|-2-2-------------------------2-2-----------------0-0-0-

CHORUS:
[ Tab from: http://www.guitartabs.cc/tabs/l/lucky_boys_confusion/broken_tab.html ]
e|-------------|-----------
B|-------------|-----------
G|-7--2--------|--7--6--9--
D|-7--2--2--4--|--7--6--9--
A|-5--0--2--4--|--5--4--7--
E|-------0--2--|-----------

BRIDGE:

For 2 measures, play the intro (Part A), and then, during "Not broken....", play the intro (Part B)

After a third verse, they kick into the bridge Part B.....

e|----5-----5-----5-----5---
B|--------------------------
G|--7-----6-----4-----6-----
D|--------------------------
A|--------------------------
E|--------------------------


LYRICS:
Lookin down from the skybox, watching the whole block
Throw 'em in the air if you hate me now
Not gettin your truce, gettin loose
like the noose on my na-na-na-na-neck
I'm bringin the next suburban curse
if I make it baby you can drive my hearse
We're getting close man, toe to toe man, here we go

Here we go, never gonna see me broken
Here we go, they're never gonna see me broken
Here we go, gonna keep my eyes open
So tell me who do you think you're defeating?

Looking out from the cellblock, watching the door lock,
Throw 'em in the air cause you hate me now
Expect nothing less, just confess
you cut off at my legs,
No I won't beg, I'm older now
I won't sit here never making a sound
We're getting close, toe to toe, here we go

Not broken (repeats)

Here we go, never gonna see me broken
Here we go, they're never gonna see me broken
Here we go, gonna keep my eyes open
Here we go, gonna stay so outspoken

Until you eat out your heart still beating
Who do you think you're defeating?
Comments