Lucky Boys Confusion - Bossman Chords & Tabs

 

Bossman Chords & Tabs

Lucky Boys Confusion Chords & Tabs

Version: 1 Type: Bass Tab 0 ratings
1 star 2 stars 3 stars 4 stars 5 stars
comments

Bossman Bass Tab

Band: Lucky Boys Confusion
Song: Bossman
Tabbed by: Landon Wright
Spartacus311@hotmail.com
www.lbc.iscool.net


The bass doesn't come in until about 35 seconds into it.
Intro
G--------------12--------
D---9-slide-12----12-----
A--------------------10--
E------------------------
B------------------------

Pre Chorus
G------------------------------------------------------------------
D------------------------------------------------------------------
A--0-0-0-0-0-0-0-0-2-2-2-2-2-2-2-2-0-0-0-0-0-0-0-0-2-2-2-2-2-2-2-2-
E------------------------------------------------------------------
B------------------------------------------------------------------
[ Tab from: http://www.guitartabs.cc/tabs/l/lucky_boys_confusion/bossman_btab.html ]
A--0-0-0-0-0-0-0-0-2-2-2-2-2-2-2-2-0-0-0-0-0-0-0-0-----------------
E--------------------------------------------------0-0-0-0-3-3-3-3-

Chorus
A--5-5-5-5----------5-5-5-5---------5-5-5-5---------2-2-2-2-0-0-0-0-
E-----------3-3-3-3---------3-3-3-3---------3-3-3-3-----------------

Verse
A--5-5-5-5-2-2-2-2-----------------
E------------------3-3-3-3-3-3-3-3-

Bridge
E--0-0-0-0-0-0-0-0

G------------------       G-------------------
D--4---------------       D--4--------4h5-4h5-
A----5--5-5-------- x3    A----5--5-5---------
E-----------0--2-3-       E-------------------
B------------------       B-------------------

G------------------       
D--4---------------       
A----5--5-5-------- x3    A--5-5-5-5-5-5-
E-----------0--2-3- 
B------------------

Song structure:
Intro
Pre Chorus
Chorus x2
Verse x4
Pre Chorus
Chorus x2
Bridge
Pre Chorus
Chorus
Comments