Lucky Boys Confusion - Boss Man Chords & Tabs

 

Boss Man Chords & Tabs

Lucky Boys Confusion Chords & Tabs

Version: 2 Type: Tab 0 ratings
1 star 2 stars 3 stars 4 stars 5 stars
comments

Boss Man Tab

   
Band-Lucky Boys Confusion (L.B.C)
Song-Boss Man
CD-?
Tabed By:Michael D.

	         for all the pepole in Chicago...........
~-let ring
x-mute string(s)


          Verse Riff (in at 0:04)  8x
e|------------------------------------------------|
b|--3----3-----0----------------------------------|
g|--2----2-----4-----0-----0--------0-------------|
d|--0----0-----4-----5-----5--------5-------------|
a|--0----0-----2-----5-----5--------5-------------|
E|-------------------3-----3--------3-------------|

  Pre-Chorus (distortion in at 0:37) "Don't tell me it's all right....."
e|----------------------------------------------------------------------|
b|----------------------------------------------------------------------|
g|----------------------------------------------------------------------|
d|-7-7-7-7-7-7-7-7--9-9-9-9-9-9-9-9--7-7-7-7-7-7-7-7----7-7--9-9--------|
a|-7-7-7-7-7-7-7-7--9-9-9-9-9-9-9-9--7-7-7-7-7-7-7-7----7-7--9-9--------|
E|-5-5-5-5-5-5-5-5--7-7-7-7-7-7-7-7--5-5-5-5-5-5-5-5----5-5--7-7--------|
                                                     pm..........
[ Tab from: http://www.guitartabs.cc/tabs/l/lucky_boys_confusion/boss_man_tab_ver_2.html ]
      Chorus (0:54)      2x                                         then play this to end chorus
e|---------------------------------------------------------------------|   ---------------------|
b|---------------------------------------------------------------------|   ---------------------|
g|--7x-7x-7x---------7x-7x-7x---------7x-7x-7x---------4x-4x-4x--------|   ---4-----------------|
d|--7x-7x-7x--5x-5x--7x-7x-7x--5x-5x--7x-7x-7x--5x-5x--4x-4x-4x---7----|   ---4-----7-----------|
a|--5x-5x-5x--5x-5x--5x-5x-5x--5x-5x--5x-5x-5x--5x-5x--2x-2x-2x---7----|   ---2-----7-----------|
E|------------3x-3x------------3x-3x------------3x-3x-------------5----|   ---------5-----------|


      Verse 2 at 1:11  2x        then this..
e|-----------------------------------|--------------------------|
b|-3---------------------------------|--------------------------|
g|-2------4--------------------------|-12--------12-------------|
d|-0------4------5--5--5-------------|----12--------12----------|
a|-0------2------5--5--5-------------|-------10--------12-------|
E|---------------3--3--3-------------|--------------------------|

 Play Chorus at 1:27 then Bridge (no guitar) at 2:04

 Go into Pre-Chorus at 2:20

   Chorus 2 (2:37)
e|---------------------------------------------------|
b|---------------------------------------------------| This is all
g|--7-7-7-------7-7-7-------7-7-7-------4-4-4--------| palm muted
d|--7-7-7--5-5--7-7-7--5-5--7-7-7--5-5--4-4-4---7----|
a|--5-5-5--5-5--5-5-5--5-5--5-5-5--5-5--2-2-2---7----|
E|---------3-3---------3-3---------3-3----------5----|

   Chorus 3 (2:45) let them ring
e|----------------------------------------|
b|----------------------------------------|
g|--7--------7--------7--------4----------| 2x
d|--7----5---7----5---7----5---4-----7----|
a|--5----5---5----5---5----5---2-----7----|
E|-------3--------3--------3---------5----|


  Outro (3:00)
e|--------------------------------------------------------------|
b|------------------------------10---7--------------------------|
g|--------------7~----------------------------------------------|
d|---9-9-9--7---7~-------------------------4--------------------|
a|---9-9-9--7---5~----------------------------0--4--5-5x--------|
E|---7-7-7--5---------------------------------------------------|
  pm.........
Comments