Lucky Boys Confusion - Atari Chords & Tabs

 

Atari Chords & Tabs

Lucky Boys Confusion Chords & Tabs

Version: 2 Type: Tab 0 ratings
1 star 2 stars 3 stars 4 stars 5 stars
comments

Atari Tab

Hey, this is my first tab ever, im almost 100% right on this one. This song is one of my 
song. My band is covering this song at our shows now. We're called Sunrise.Over.Central 
us out at purevolume.com/sunriseovercentral. Happy playing!


Tuning: Standard Tuning
Listen to the song for rhythm.

Intro: 5x                                 After 5x:
e|---------------------------------------------------------------------------|
B|---------------------------------------------------------------------------|
G|----------10-----7-----5-------------------------10-----5------------------|
D|----8-----10-----7-----5-------------------8-----10-----5------------------|
A|----8------8-----5-----3-------------------8------8-----3------------------|
E|----6--------------------------------------6-------------------------------|

Verse: Intro just p.m.

Chorus: 3x                                After 3x:

e|---------------------------------------------------------------------------|
B|---------------------------------------------------------------------------|
G|----3------------7-----5--------------------3-----------5------------------|
D|----3------3-----7-----5--------------------3-----3-----5------------------|
A|----1------3-----5-----3--------------------1-----3-----3------------------|
E|-----------1--------------------------------------1------------------------|

Bridge: (I'm wasted and miserable)

e|-----------------------------------------------------------------------------|
B|-----------------------------------------------------------------------------|
G|-----5-----7-----8-----------------------------------------------------------|
D|-----5-----7-----8-----------------------------------------------------------|
A|-----3-----5-----6-----------------------------------------------------------|
E|-----------------------------------------------------------------------------|

SOLO:


  1st Bar
e|-----13----------------------------------------------------------------------|
B|--------11--10--10--10--11--10--10--11--10--10-------------------------------|
G|-------------------------------------------------12--10----------------------|
D|-----------------------------------------------------------------------------|
A|-----------------------------------------------------------------------------|
E|-----------------------------------------------------------------------------|

[ Tab from: http://www.guitartabs.cc/tabs/l/lucky_boys_confusion/atari_tab_ver_2.html ]
e|-----13----------------------------------------------------------------------|
B|-------11--10--10--10--11--10--10--11--10--10--------------------------------|
G|----------------------------------------------12--12---repeat above----------|
D|----------------------------------------------------then go to the third-----|
A|--------------------------------------------------------section--------------|
E|-----------------------------------------------------------------------------|


  Then play this after repeating the first bar.

e|-----13-----12---------------------------------------------------------------|
B|--------13-------------------------------------------------------------------|
G|-----------------------------------------------------------------------------|
D|-----------------------------------------------------------------------------|
A|-----------------------------------------------------------------------------|
E|-----------------------------------------------------------------------------|

Later in the song the solo comes back but its not entirely the same.

   1st Bar

e|-----13----------------------------------------------------------------------|
B|--------11--10--10--10--11--10--10--11--10--10-------------------------------|
G|------------------------------------------------12--10-----------------------|
D|-----------------------------------------------------------------------------|
A|-----------------------------------------------------------------------------|
E|-----------------------------------------------------------------------------|


e|-----13----------------------------------------------------------------------|
B|-------11--10--10--10--11--10--10--11--10--10--------------------------------|
G|----------------------------------------------12--12---repeat above----------|
D|----------------------------------------------(after repeating above,--------|
A|-----------------------------------------------play whats below)-------------|
E|-----------------------------------------------------------------------------|


e|-----13--------15----------13----------15------------------------15-ring-----|
B|-------11--10------11--10------11--10------11--10---11----10-----------------|
G|-------------------------------------------------------10----10--------------|
D|-----------------------------------------------------------------------------|
A|-----------------------------------------------------------------------------|
E|-----------------------------------------------------------------------------|


Thats it! Enjoy playing. It may seem a little confusing but basically you play the first 
then the second bar, then repeat the first bar, then go to the third. This is with both 
where 1st guitar plays in the song.
Comments