Lucky 7 - My Fathers Son Chords & Tabs

 

My Fathers Son Chords & Tabs

Lucky 7 Chords & Tabs

Version: 1 Type: Tab 0 ratings
1 star 2 stars 3 stars 4 stars 5 stars
comments

My Fathers Son Tab

#-------------------------------EASE NOTE--------------------------------------#
#This file is the author's own work and represents their interpretation of the #
#song. You may only use this file for private study, scholarship, or research. #
#------------------------------------------------------------------------------#
This is their official webpage www.feelingluckypunk.com

 Band: Lucky 7
 Song: My father's son
 Tuning: Normal
       
   ~~  >
|-14-|------------------|
|----|------------------|
|----|-----------6-8----|
|----|-9\-9-8-14-6-8----|
|----|-9\-9-8-14-4-6----|
|----|-7\-7-6-12--------|


|----------------------------|
|----------------------------|
|---8-----8-----8-----8------|
|-----9-----9-----9-----9----|(00:13)
|----------------------------|
|-7-----6-----4-----2--------|


|--------------------------|
|--------------------------|
|--------------------------|
|-2-2-2-2S11--2-2-2-2S9----|(00:18)
|-2-2-2-2S11--2-2-2-2s9----|
|-0-0-0-0-----0-0-0-0------|


|--------------|
|--------------|
|--------------|
|-11-13-4-2----|(00:23)
|-11-13-4-2----|
|--9-11-2-0----|


|--------------|
|--------------|
|-9-13-11-9----|
|-9-13-11-9----|(00:32)
|-7-11--9-7----|
|--------------|


|-----14-------12----------|
|--------16-------16-------|
|-----------16-------16----|
|-9-8----------------------|(00:41)
|-9-8----------------------|
|-7-6----------------------|

[ Tab from: http://www.guitartabs.cc/tabs/l/lucky_7/my_fathers_son_tab.html ]
|------------|
|------------|
|------------|
|-9-8-6-4----|(00:51)
|-9-8-6-4----|
|-7-6-4-2----|


|-----------------------|
|-----------------------|
|-----------------------|
|-9-11-9--9-11-9-4-2----|(01:38)
|-----------------------|
|-----------------------|


|------------------------|
|------------------------|
|-9S11--8-/11--6S8--4----|
|------------------------|(02:16)
|-7S=9--6--/9--4S6--2----|
|------------------------|

Tabbed by RoB


Tablature Legend
----------------
 h   - hammer-on
 p   - pull-off
 b   - bend
 pb  - pre-bend
 r   - bend release (if no number after the r, then release immediately)
 /\  - slide into or out of (from/to "nowhere")
 s   - legato slide
 S   - shift slide
  - natural harmonic
[n]  - artificial harmonic
n(n) - tapped harmonic
 ~   - vibrato
 tr  - trill
 T   - tap
 TP  - trem. picking
 PM  - palm muting
\n/  - tremolo bar dip; n = amount to dip
 \n  - tremolo bar down
 n/  - tremolo bar up
/n\  - tremolo bar inverted dip
 =   - hold bend; also acts as connecting device for hammers/pulls
 <>  - volume swell (louder/softer)
 x   - on rhythm slash represents muted slash
 o   - on rhythm slash represents single note slash


***************************************************************************************
* Generated using Power Tab Editor by Brad Larsen - http://powertab.guitarnetwork.org *
***************************************************************************************
Comments