Lucky 7 - Falling Asleep Chords & Tabs

 

Falling Asleep Chords & Tabs

Lucky 7 Chords & Tabs

Version: 1 Type: Tab 0 ratings
1 star 2 stars 3 stars 4 stars 5 stars
comments

Falling Asleep Tab

   
-------------------------------------------------------------------------------
			     Falling Asleep - Lucky 7
-------------------------------------------------------------------------------
Tabbed by: Colbuddy	
Email: Colinawthnowena@netscape.net

Tuning: Regular

Opening (Just Guitar)
e|---5-------5----5-------5----5-------5----5-------5------------------------|
B|-----5------------5------------5------------5------------------------------|
G|---------------------------------------------------------------------------|
D|-7-----7-7----7-----7-7----7-----7-7----7-----7-7--------------------------|
A|---------------------------------------------------------------------------|
E|---------------------------------------------------------------------------|

Opening (All Instruments)
Guitar 1
e|---5-----9-5-7-5----5-----9-5-7-5---5-----9-5-7-5---5-----9-5-9-5----------|
B|-----5----------------5---------------5---------------5--------------------|
G|---------------------------------------------------------------------------|
D|-7-----7----------7-----7---------7-----7---------7-----7------------------|
A|---------------------------------------------------------------------------|
E|---------------------------------------------------------------------------|

Guitar 2
e|---------------------------------------------------------------------------|
B|---------------------------------------------------------------------------|
G|-----------------7-7----------------------------------------------7-7------|
D|-7---4-4---2-2---7-7----7---4-4---2---------------7---4-4---2-2---7-7---7--|
A|-7---4-4---2-2---5-5----7---4-4---2---4-5-4-------7---4-4---2-2---5-5---7--|
E|-5---2-2---0-0----------5---2-2---0---------5-----5---2-2---0-0---------5--|

e|---------------------------------------------------------------------------|
B|---------------------------------------------------------------------------|
G|---------------------------------------------------------------------------|
D|-4-4---2-2-----------------------------------------------------------------|
A|-4-4---2-2--4-5-4-----4----------------------------------------------------|
E|-2-2---0-0--------7-7---7-4-5----------------------------------------------|

Verse 
Guitar comes in after 4 measures of bass
Stressed Out......
e|---------------------------------------------------------------------------|
B|---------------------------------------------------------------------------|
G|---------------------------------------------------------------------------|
D|----------------------------------------------------------77777777-77777777|
A|-77777777-77777777--44444444-44444444--22222222-22222222--55555555-55555555|
E|-55555555-55555555--22222222-22222222--00000000-00000000-------------------|

Pre-Chorus
Nothing Seems to go........
e|---------------------------------------------------------------------------|
B|---------------------------------------------------------------------------|
G|-------------77777777-77777777---------------77777777-99999999-------------|
D|-2-2---4-4---77777777-77777777---2-2---4-4---77777777-99999999-------------|
A|-2-2---4-4---55555555-55555555---2-2---4-4---55555555-77777777-------------|
E|-0-0---2-2-----------------------0-0---2-2---------------------------------|

Chrous
So as your falling asleep......
e|---------------------------------------------------------------------------|
B|---------------------------------------------------------------------------|
G|----------------------------------------------------------77777777-77777777|
D|-77777777-77777777--44444444-44444444--22222222-22222222--77777777-77777777|
A|-77777777-77777777--44444444-44444444--22222222-22222222--55555555-55555555|
E|-55555555-55555555--22222222-22222222--00000000-00000000-------------------|
[ Tab from: http://www.guitartabs.cc/tabs/l/lucky_7/falling_asleep_tab.html ]
Verse 2
Guitar comes in after 4 measures of bass
Messed Up......
e|---------------------------------------------------------------------------|
B|---------------------------------------------------------------------------|
G|---------------------------------------------------------------------------|
D|----------------------------------------------------------77777777-77777777|
A|-77777777-77777777--44444444-44444444--22222222-22222222--55555555-55555555|
E|-55555555-55555555--22222222-22222222--00000000-00000000-------------------|

Pre-Chrous
Nothing seems to go.......
e|---------------------------------------------------------------------------|
B|---------------------------------------------------------------------------|
G|-------------77777777-77777777---------------77777777-99999999-------------|
D|-2-2---4-4---77777777-77777777---2-2---4-4---77777777-99999999-------------|
A|-2-2---4-4---55555555-55555555---2-2---4-4---55555555-77777777-------------|
E|-0-0---2-2-----------------------0-0---2-2---------------------------------|

Chrous
So as your falling asleep......
e|---------------------------------------------------------------------------|
B|---------------------------------------------------------------------------|
G|----------------------------------------------------------77777777-77777777|
D|-77777777-77777777--44444444-44444444--22222222-22222222--77777777-77777777|
A|-77777777-77777777--44444444-44444444--22222222-22222222--55555555-55555555|
E|-55555555-55555555--22222222-22222222--00000000-00000000-------------------|

Introduction to Bridge
e|---------------------------------------------------------------------------|
B|---------------------------------------------------------------------------|
G|--6-/7-6-/7-6-/7-6-/7-6-/7-6-/7--------------------------------------------|
D|--6-/7-6-/7-6-/7-6-/7-6-/7-6-/7--------------------------------------------|
A|--4-/5-4-/5-4-/5-4-/5-4-/5-4-/5--------------------------------------------|
E|---------------------------------------------------------------------------|

Bridge
Guitar 1
Hurtin like a monday.........
e|---------------------------------------------------------------------------|
B|---------------------------------------------------------------------------|
G|---------------------------------------------------------------------------|
D|-7-----------4------------2----------7-----7-7-7-7-7777--------------------|
A|-7-----------4------------2----------7-----7-7-7-7-7777--------------------|
E|-5-----------2------------0----------5-----5-5-5-5-5555--------------------|

Bridge 
Guitar 2
e|---5-----9-5-7-5----5-----9-5-7-5---5-----9-5-7-5---5-----9-5-9-5----------|
B|-----5----------------5---------------5---------------5--------------------|
G|---------------------------------------------------------------------------|
D|-7-----7----------7-----7---------7-----7---------7-----7------------------|
A|---------------------------------------------------------------------------|
E|---------------------------------------------------------------------------|

Chrous
So as your falling asleep......
e|---------------------------------------------------------------------------|
B|---------------------------------------------------------------------------|
G|----------------------------------------------------------77777777-77777777|
D|-77777777-77777777--44444444-44444444--22222222-22222222--77777777-77777777|
A|-77777777-77777777--44444444-44444444--22222222-22222222--55555555-55555555|
E|-55555555-55555555--22222222-22222222--00000000-00000000-------------------|

Second time through the chorus this guitar is played.......
e|---5-----9-5-7-5----5-----9-5-7-5---5-----9-5-7-5---5-----9-5-9-5----------|
B|-----5----------------5---------------5---------------5--------------------|
G|---------------------------------------------------------------------------|
D|-7-----7----------7-----7---------7-----7---------7-----7------------------|
A|---------------------------------------------------------------------------|
E|---------------------------------------------------------------------------|


Any corrections or feedback, e-mail me at colinawthnowena@netscape.net


| /  slide up
| \  slide down
| h  hammer-on
| p  pull-off
| ~  vibrato
| +  harmonic
| x  Mute note
===============================================================================
Comments