Lucky 7 - California Girl Chords & Tabs

 

California Girl Chords & Tabs

Lucky 7 Chords & Tabs

Version: 1 Type: Tab 0 ratings
1 star 2 stars 3 stars 4 stars 5 stars
comments

California Girl Tab

Lucky 7 - California Girl
Tabbed By Stevearooski
*Listen To The Song For Timing And Strumming And Palm Muting
/ = Slide

Intro (Clean)                                                        1x
E----------------------------------------------------------------------|
B----------------------------------------------------------------------|
G------7-------7-------7-------7----------7-------7-------7-------7----|
D----7---7---7---7---7---7---7---7------7---7---7---7---7---7---7------|
A--5----------------------------------5--------------------------------|
E----------5-------7-------5------------------5-------7-------5--------|

Intro Continued (Distortion)                                         2x
E----------------------------------------------------------------------|
B----------------------------------------------------------------------|
G--7-7-----------------------------------------------------------------|
D--7-7-----7-7-----5-5----5-5------------------------------------------|
A--5-5-----7-7-----5-5----5-5------------------------------------------|
E----------5-5-----3-3----3-3------------------------------------------|

Intro Continued (Distortion, Play During Above)                      2x
E----------------------------------------------------------------------|
B----------------------------------------------------------------------|
G----------------------------------------------------------------------|
D---------4-------4-------4---4-2--------------------------------------|
A-----5-7-----5-7-----5-7----------------------------------------------|
E----------------------------------------------------------------------|

Verse (Distortion, Palm Muting)                                      1x
E----------------------------------------------------------------------|
B----------------------------------------------------------------------|
G--7-----------------------------------7-------------------------------|
D--7--------9--------5--------7--------7--------9--------5--------7----|
A--5--------9--------5--------7--------5--------9--------5--------7----|
E-----------7--------3--------5-----------------7--------3--------5----|

Verse (Distortion, Play During Above)                                1x
E----------------------------------------------------------------------|
B----------------------------------------------------------------------|
G--------------------------------------7/9/11/9-7/9/11/9-7/9/11/9------|
D----------------------------------------------------------------------|
A--------------------------------------5/7/-9/7-5/7/-9/7-5/7/-9/7------|
E----------------------------------------------------------------------|

Prechorus                                                            1x
E----------------------------------------------------------------------|
B----------------------------------------------------------------------|
G----------------------------------------------------------------------|
D--5-------------------------------7-----------------------------------|
A--5-------------------------------7-----------------------------------|
E--3-------------------------------5-----------------------------------|
[ Tab from: http://www.guitartabs.cc/tabs/l/lucky_7/california_girl_tab.html ]
Chorus (Distortion)                                                  2x
E----------------------------------------------------------------------|
B----------------------------------------------------------------------|
G--7-7-------------------------------7---------------------------------|
D--7-7-----7-7-----5-5-----5-5-------7-----7-----5-----5---------------|
A--5-5-----7-7-----5-5-----5-5-------5-----7-----5-----5---------------|
E----------5-5-----3-3-----3-3-------------5-----3-----3---------------|

Chorus (Distortion, Play During Above)                               2x
E----------------------------------------------------------------------|
B----------------------------------------------------------------------|
G----------------------------------------------------------------------|
D---------4-------4-------4---4-2--------------------------------------|
A-----5-7-----5-7-----5-7----------------------------------------------|
E----------------------------------------------------------------------|

Bridge (Distortion)                                                  1x
E----------------------------------------------------------------------|
B----------------------------------------------------------------------|
G--7-7-------------------------------7---------------------------------|
D--7-7-----7-7-----5-5-----5-5-------7-----7-----5-----5---------------|
A--5-5-----7-7-----5-5-----5-5-------5-----7-----5-----5---------------|
E----------5-5-----3-3-----3-3-------------5-----3-----3---------------|

Bridge Continued (Clean)                                             1x
E----------------------------------------------------------------------|
B----------------------------------------------------------------------|
G------7-------7-------7-------7----------7-------7-------7-------7----|
D----7---7---7---7---7---7---7---7------7---7---7---7---7---7---7------|
A--5----------------------------------5--------------------------------|
E----------5-------7-------5------------------5-------7-------5--------|

Bridge End (Distortion)                                              1x
E----------------------------------------------------------------------|
B----------------------------------------------------------------------|
G----------------------------------------------------------------------|
D--5-------------------------------------------------------------------|
A--5-------------------------------------------------------------------|
E--3-------------------------------------------------------------------|

Outtro (Distortion)                                                  1x
E----------------------------------------------------------------------|
B----------------------------------------------------------------------|
G--------------------7-------------------------------------------------|
D--5--------7--------7-------------------------------------------------|
A--5--------7--------5-------------------------------------------------|
E--3--------5----------------------------------------------------------|

Order:
Intro
Intro Continued
Verse
Prechrous
Chorus
Verse
Prechorus
Chorus
Bridge
Bridge Continued
Bridge End
Chorus
Outtro
Comments