Lower Life Society - Revenge On The Jocks Chords & Tabs

 

Revenge On The Jocks Chords & Tabs

Lower Life Society Chords & Tabs

Version: 1 Type: Tab 0 ratings
1 star 2 stars 3 stars 4 stars 5 stars
comments

Revenge On The Jocks Tab

Intro

E]----------------------------------------------------|
B]----------------------------------------------------|
G]----------------------------------------------------|
D]----------------------------------------------------|
A]----------------------------------------------------|
E]--0-0-3-0-6-5-0-0-3-0-6-5-0-0-3-0-6-5-- Let Ring out|

Verse 1

E]-----------------------------------------|  Repeat 4 Times
B]-----------------------------------------|
G]-----------------------------------------|
D]---------------7/5--------------------7/5|
A]--5/7-77-5/7-7-5/3-------5/7-77-5/7-7-5/3|
E]--3/5-55-3/5-5-----------3/5-55-3/5-5----|

Chorus

E]---------------------------------------|
B]---------------------------------------|
G]---------------------------------------|
D]---------------------------------------|
A]---------------------------------------|
E]--0-0-3-0-6-5-0-0-3-0-6-5-0-0-3-0-6-5--|

E]-------------------------------------------|
B]-------------------------------------------|
G]-------------------------------------------|
D]-------------------------------------------|
A]--0-0-3-0-6-5-0-0-3-0-6-5------------------|
E]-------------------------------------------|
[ Tab from: http://www.guitartabs.cc/tabs/l/lower_life_society/revenge_on_the_jocks_tab.html ]
E]---------------------------------------|
B]---------------------------------------|
G]---------------------------------------|
D]---------------------------------------|
A]---------------------------------------|
E]--0-0-3-0-6-5-0-0-3-0-6-5-0-0-3-0-6-5--|

Verse 2

E]------------------------------------------|  Repeat 4 Times
B]------------------------------------------|
G]------------------------------------------|
D]------------------------------------------|
A]--7-----99--1010--7-----99--1010----------|
E]--5-----77--8--8--5-----77--8--8----------|

Chorus

E]---------------------------------------|
B]---------------------------------------|
G]---------------------------------------|
D]---------------------------------------|
A]---------------------------------------|
E]--0-0-3-0-6-5-0-0-3-0-6-5-0-0-3-0-6-5--|

E]-------------------------------------------|
B]-------------------------------------------|
G]-------------------------------------------|
D]-------------------------------------------|
A]--0-0-3-0-6-5-0-0-3-0-6-5------------------|
E]-------------------------------------------|

E]---------------------------------------|
B]---------------------------------------|
G]---------------------------------------|
D]---------------------------------------|
A]---------------------------------------|
E]--0-0-3-0-6-5-0-0-3-0-6-5-0-0-3-0-6-5--|
Comments