Lower Class Brats - Psycho Chords & Tabs

 

Psycho Chords & Tabs

Lower Class Brats Chords & Tabs

Version: 2 Type: Bass Tab 0 ratings
1 star 2 stars 3 stars 4 stars 5 stars
comments

Psycho Bass Tab

This is for The Lower Class Brats song "psycho"


Intro/Verse
[ Tab from: http://www.guitartabs.cc/tabs/l/lower_class_brats/psycho_btab_ver_2.html ]
D---------------------------------------------------------------
G---------------------------------------------------------------
A----------------5555-------------5-----------------------------
E:5555-0000-5555------5555-0000-5---5----------------------------

Play that however many times

Chorus

D--------------------------------------------------------------
G--------------------------------------------------------------
A:---------3-3-3-3--5-5-5-5---3-5-33--------------------------
E:-5-5-5-5------------------------------------------------------




have fun brats
Comments