Lower Class Brats - Just Like Clockwork Chords & Tabs

 

Just Like Clockwork Chords & Tabs

Lower Class Brats Chords & Tabs

Version: 1 Type: Tab 0 ratings
1 star 2 stars 3 stars 4 stars 5 stars
comments

Just Like Clockwork Tab

   
-------------------------------------------------------------------------------
			     Just like Clockwork- L.C.B.
-------------------------------------------------------------------------------
Tabbed by:Steve -Viginancesp
Email: shredtildeadsc@yahoo.com

Tuning: Standard

e|--------------12-----------------------------------------------------------|
B|--10\12--10h12---12-10-8-10-8~~-5-5\8-8\12-10-8-10-8-5-8-585-8-5-8-585--8--|
G|---------------------------------------------------------------------------|
D|---------------------------------------------------------------------------|
A|---------------------------------------------------------------------------|
E|---------------------------------------------------------------------------|
[ Tab from: http://www.guitartabs.cc/tabs/l/lower_class_brats/just_like_clockwork_tab.html ]
e|-----------6bbbbbb-----15p12-----12p15-----------12p15-12p15------12p15----|
B|--5-8-585--9bbbbbb----------12p15-----12p15-12p15-----------12p15----------|
G|---------------------------------------------------------------------------|
D|---------------------------------------------------------------------------|
A|---------------------------------------------------------------------------|
E|---------------------------------------------------------------------------|

e|----12p15-----------12p15-12p15------12p15-----12p15-----------12p15-12p15-|
B|12p15-----12p15-12p15-----------12p15------12p15-----12p15-12p15-----------|
G|---------------------------------------------------------------------------|
D|---------------------------------------------------------------------------|
A|---------------------------------------------------------------------------|
E|---------------------------------------------------------------------------|

e|------12p15-----12p15------------------------------------------------------|
B|-12p15-----12p15-----12p15\16----------------------------------------------|
G|---------------------------------------------------------------------------|
D|---------------------------------------------------------------------------|
A|---------------------------------------------------------------------------|
E|---------------------------------------------------------------------------|

Thats it... email me if you need to............


| /  slide up
| \  slide down
| h  hammer-on
| p  pull-off
| ~  vibrato
| +  harmonic
| x  Mute note
Comments