Lower Class Brats - Clockwork Fuse Chords & Tabs

 

Clockwork Fuse Chords & Tabs

Lower Class Brats Chords & Tabs

Version: 1 Type: Tab 0 ratings
1 star 2 stars 3 stars 4 stars 5 stars
comments

Clockwork Fuse Tab

   
                            Lower Class Brats
                              Clockwork Fuse

Intro
e|----------------------------------------------------------|
B|-9-9-10-10-7-9-1010101010101010--9-9-10-10-7-9-10-12-11-9-|
G|-0-0-0--0--0-0-0-0-0-0-0-0-0-0---0-0-0--0--0-0-0--0--0--0-|
D|----------------------------------------------------------|
A|----------------------------------------------------------|
E|----------------------------------------------------------|
pm ............................... ........................

Intro (cont)
e|----------------------------------------------------------|
B|----------------------------------------------------------|
G|-9-9-10-10-7-9-1010101010101010--9-9-10-10-7-9-10-12-11-9-|
D|-0-0-0--0--0-0-0-0-0-0-0-0-0-0---0-0-0--0--0-0-0--0--0--0-|
A|----------------------------------------------------------|
E|----------------------------------------------------------|
pm ............................... ........................
[ Tab from: http://www.guitartabs.cc/tabs/l/lower_class_brats/clockwork_fuse_tab.html ]
Verse  
e|----------------------------------------------|
B|-1010-99-77-1010-9-777------------------------|
G|-0-0--00-00-0-0--0-000------------------------|
D|------------------------1010-99-77-1010-9-777-|
A|------------------------0-0--00-00-0-0--0-000-|
E|----------------------------------------------|
pm .....................  .....................

Pre-Chorus
e|----------------------|
B|-7777777777777777-----|
G|-7777777777777777-(16)|
D|-7777777777777777-----|
A|-5555555555555555-----|
E|----------------------|
pm ................

Chorus
e|---------------------------------|
B|-7-9-10-9-10-9-777---------------|
G|-7-9-10-9-10-9-777-9--8-6-9--8-6-|
D|-7-9-10-9-10-9-777-10-9-7-10-9-7-|
A|-5-7-8--7-8--7-555-10-9-7-10-9-7-|
E|-------------------8--7-5-8--7-5-|

Post-Chorus
e|------------|
B|-77777777-9-|
G|-77777777-9-|
D|-77777777-9-|
A|-55555555-7-|
E|------------|

Solo
e|----------------------------------------------------------------|
B|----------------------------------------------------------------|
G|-99-1010-77-9-12-15-14-1414-(x2)--------------------------------|
D|-00-0-0--00-0-0--0--0--0-0-------99-1010-77-9-12-15-14-1414-(x2)|
A|---------------------------------00-0-0--00-0-0--0--0--0-0------|
E|----------------------------------------------------------------|
pm .........................       .........................

ORDER
Intro(2)
Verse(2)
Pre-Chorus(1)
Chorus(2)
Post-Chorus(1)
Verse(4)
Pre-Chorus(1)
Chorus(4)
Post-Chorus(1)
Verse(4)
Pre-Chorus(1)
Chorus(4)
Post-Chorus(1)
Solo(2)
Pre-Chorus(1)
Chorus(4)
Post Chorus(1)
Verse(8)-to fade out

KEY
pm = palm mute
Comments