Lower Class Brats - Beat Of A Different Drum Chords & Tabs

 

Beat Of A Different Drum Chords & Tabs

Lower Class Brats Chords & Tabs

Version: 1 Type: Bass Tab 0 ratings
1 star 2 stars 3 stars 4 stars 5 stars
comments

Beat Of A Different Drum Bass Tab

G--------------------------------------------------------
D-------------------------------------------------------- 2X    
A-55555-------33333--------------------------------------
E-------33333-------55555--------------------------------

G--------------------------------------------------------
D-------------------------------------------------------- 2X
A-5-5-5-5-5---------3-3-3-3-3----------------------------
E----------3-3-3-3-3---------5-5-5-5-5-------------------
[ Tab from: http://www.guitartabs.cc/tabs/l/lower_class_brats/beat_of_a_different_drum_btab.html ]
G--------------------------------------------------------
D-------------------------------------------------------- 4x
A-5-55555---------3-33333--------------------------------
E---------3-33333---------5-55555------------------------ 

FIRST CHORUS
G--------------------------33333333----------------------
D---------33333333-55555555------------------------------4X
A-55555555-----------------------------------------------
E--------------------------------------------------------



SECOND CHORUS
G-------------------------3-3-3-3------------------------
D---------3-3-3-3-5-5-5-5--------------------------------
A-5-5-5-5------------------------------------------------4X
E--------------------------------------------------------
Comments