Low Light - Welcome To My World Chords & Tabs

 

Welcome To My World Chords & Tabs

Low Light Chords & Tabs

Version: 2 Type: Bass Tab 0 ratings
1 star 2 stars 3 stars 4 stars 5 stars
comments

Welcome To My World Bass Tab

Artist: LOW LIGHT
Song:   "Welcome To My World"
         music + lyrics by Martin Schönegger


Intro: Rhythm Guitar only

PreVerse:
G|-----------------------------------------------------|
D|-----------------------------------------------------|
A|---3-3-3-3-3-3-3-3-----------------------------------|
E|-----------------------------------------------------|

Verse:
G|------------5----------------------------------------|
D|------------------3----------------------------------|
A|---0-0--3-3------------------------------------------|
E|--------------1-1---0-0-0-0--------------------------| 4x
[ Tab from: http://www.guitartabs.cc/tabs/l/low_light/welcome_to_my_world_btab_ver_2.html ]
PreChorus:
G|-----------------------------------------------------|
D|-----------------------------------------------------|
A|---------------------------3-3-3-3-3-3-3-3-----------|
E|---1-1-1-0--3-5--1-1-1-0/8---------------------------|

Chorus:
G|--------------3--------------------------------------|
D|-------5-----------3---3--3--------------------------|
A|---------1-1-----------------------------------------|
E|---3-3----------1---1---1----------------------------| 4x

Solo:
G|---------------------------------------------------|
D|---------------------------------------------------|
A|---0-0--3-3----------------------------------------|
E|-------------1-1--0-0/12---------------------------|

Do all variations, which sound well.

/ = slide up
Comments