Low Down Militia - Sneak Attack Chords & Tabs

 

Sneak Attack Chords & Tabs

Low Down Militia Chords & Tabs

Version: 2 Type: Bass Tab 0 ratings
1 star 2 stars 3 stars 4 stars 5 stars
comments

Sneak Attack Bass Tab

Low Down Militia - Sneak Attack
Tabbed by: Joeyc
Here it is, the first release from Low Down Militia. If I'm wrong with 
anything.... Wait nothing's wrong with it Cos I wrote It.But if you want 
more tab just ask: yjoek@hotmail.com

Intro:
G----------------------------------------------                         
D--0-----------10--12-----1---3--4h3h4---------
A----------------------------------------------
E----------------------------------------------
[ Tab from: http://www.guitartabs.cc/tabs/l/low_down_militia/sneak_attack_btab_ver_2.html ]
Verse:
G----------------------------------------------
D--0-----------10--12-----1---3--4h3h4---------
A----------------------------------------------
E----------------------------------------------

Chorus: (Followed by a mean bass line smoke a bone and i feel fine.....)
G--------------------------------10---------------
D--12-12-12---10-10-10---7-7-7--------10--------11
A-------------------------------------------------
E-------------------------------------------------

How To Play:
Intro  x3
Verse  x8
Chorus x5
Verse  x16
Chorus x6
Fin..............

Well That's it Enjoy!!!!!!!!!!!!
Comments