Low - Over The Ocean Chords & Tabs

 

Over The Ocean Chords & Tabs

Low Chords & Tabs

Version: 1 Type: Tab

Over The Ocean Tab

LOW - Over The Ocean (Transcription by Hanoihancock)
DGDGAD

Chorus played Twice
  Ah                 Ah                Ah           Over the Ocean       
D |--7--------------|--4--------------|--2--------------|--0--------------||
A |--7--------------|--4--------------|--2--------------|--0--------------||
G |--9--------------|--6--------------|--4--------------|--2--------------||
D |--7--------------|--4--------------|--2--------------|--0--------------||
G |--9--------------|--6--------------|--4--------------|--2--------------||
D |--7--------------|--4--------------|--2--------------|--0--------------||

  Over the hills      over the dell     over the firelight
D |--7--------------|--4--------------|--2--------------|--0--------------||
A |--7--------------|--4--------------|--2--------------|--0--------------||
G |--9--------------|--6--------------|--4--------------|--2--------------||
D |--7--------------|--4--------------|--2--------------|--0--------------||
G |--9--------------|--6--------------|--4--------------|--2--------------||
D |--7--------------|--4--------------|--2--------------|--0--------------||

  over the sand      over the glen     over the empire
D |--7--------------|--4--------------|--2--------------|--0--------------||
A |--7--------------|--4--------------|--2--------------|--0--------------||
G |--9--------------|--6--------------|--4--------------|--2--------------||
D |--7--------------|--4--------------|--2--------------|--0--------------||
G |--9--------------|--6--------------|--4--------------|--2--------------||
D |--7--------------|--4--------------|--2--------------|--0--------------||
[ Tab from: http://www.guitartabs.cc/tabs/l/low/over_the_ocean_tab.html ]
  And if I belong   then I'll be longer than expected.
D |--7--------------|--4--------------|--2--------------|--0--------------||
A |--7--------------|--4--------------|--2--------------|--0--------------||
G |--9--------------|--6--------------|--4--------------|--2--------------||
D |--7--------------|--4--------------|--2--------------|--0--------------||
G |--9--------------|--6--------------|--4--------------|--2--------------||
D |--7--------------|--4--------------|--2--------------|--0--------------||

  And if I'm if I'm wrong, the mighty and strong will be rejected.
D |--7--------------|--4--------------|--2--------------|--0--------------||
A |--7--------------|--4--------------|--2--------------|--0--------------||
G |--9--------------|--6--------------|--4--------------|--2--------------||
D |--7--------------|--4--------------|--2--------------|--0--------------||
G |--9--------------|--6--------------|--4--------------|--2--------------||
D |--7--------------|--4--------------|--2--------------|--0--------------||


Chorus played 4 times
  Ah                 Ah                Ah           Over the Ocean 
D |--7--------------|--4--------------|--2--------------|--0--------------||
A |--7--------------|--4--------------|--2--------------|--0--------------||
G |--9--------------|--6--------------|--4--------------|--2--------------||
D |--7--------------|--4--------------|--2--------------|--0--------------||
G |--9--------------|--6--------------|--4--------------|--2--------------||
D |--7--------------|--4--------------|--2--------------|--0--------------||






  (Guitar Solo)
D |--7--------------|--4--------------|--2--------------|--0--------------||
A |--7-0-0-0-0-0----|--4-0-0-0-0------|--2-0-0-0-0------|--0-0-0-0-0------||
G |--9--------------|--6--------------|--4--------------|--2--------------||
D |--7--------------|--4--------------|--2--------------|--0--------------||
G |--9--2-2-2-2-2---|--6--2-2-2-2-----|--4--2-2-2-2-----|--2--2-2-2-2-----||
D |--7--------------|--4--------------|--2--------------|--0--------------||


D |--7--------------|--4--------------|--2--------------|--0---------|--7-||
A |--7-0-0-0-0------|--4-0-0-0-0------|--2-0-0-0-0------|--0-0-0-0-0-|--7-||
G |--9--------------|--6--------------|--4--------------|--2---------|--9-||
D |--7--------------|--4--------------|--2--------------|--0---------|--7-||
G |--9--2-2-2-2-----|--6--2-2-2-2-----|--4--2-2-2-2-----|--2--2-2-2-2|--9-||
D |--7--------------|--4--------------|--2--------------|--0---------|--7-||