Low - Kind Of Girl Chords & Tabs

 

Kind Of Girl Chords & Tabs

Low Chords & Tabs

Version: 1 Type: Tab 1 rating
1 star 2 stars 3 stars 4 stars 5 stars
comments

Kind Of Girl Tab

LOW - Kind of Girl (Transcription by Hanoihancock)
DGDGG#D

  (Intro)
D |---------------------------------------||
G#|--12---10---8---7---7-------3----------||
G |-----0----0---0---0---0-------0--------||
D |------------------------0-------0------||
G |--10----9---7---6---5-----5-5-----5----||
D |---------------------------------------||

D |---------------------------------------||
G#|--12---10---8---7---7-------3----------||
G |-----0----0---0---0---0-------0--------||
D |------------------------0-------0------||
G |--10----9---7---6---5-----5-5-----5----||
D |---------------------------------------||


  Half your life you kept it in
D |---------------------------------------||
G#|--12---10---8---7---7-------3----------||
G |-----0----0---0---0---0-------0--------||
D |------------------------0-------0------||
G |--10----9---7---6---5-----5-5-----5----||
D |---------------------------------------||
  Born without a stomach 
D |---------------------------------------||
G#|--12---10---8---7---7-------3----------||
G |-----0----0---0---0---0-------0--------||
D |------------------------0-------0------||
G |--10----9---7---6---5-----5-5-----5----||
D |---------------------------------------||
  Now the threat around you spins
D |---------------------------------------||
G#|--12---10---8---7---7-------3----------||
G |-----0----0---0---0---0-------0--------||
D |------------------------0-------0------||
G |--10----9---7---6---5-----5-5-----5----||
D |---------------------------------------||

  No, you're not that kind of girl
D |----------------------------------------------------------||
G#|---4-------4-------4-----4-5-7---5-------5-------5--------||
G |-----0-------0-------0-------------0-------0-------0------||
D |-------0-------0-------0-------------0 ------0-------0----||
G |--2------2-------2-------2-4-5-3-------3-------3-------3--||
D |----------------------------------------------------------||

  No, you could've had the world
D |----------------------------------------------------------------||
G#|---4-------4-------4-----4-5-7---5-------5-------7-------7------||
G |-----0-------0-------0-------------0-------0-------0-------0----||
D |-------0-------0-------0-------------0 ------0-------0-------0--||
G |--2------2-------2-------2-4-5-3-------3-------5-------5--------||
D |----------------------------------------------------------------||







  (Interlude)
D |---------------------------------------||
G#|--12---10---8---7---7-------3----------||
G |-----0----0---0---0---0-------0--------||
D |------------------------0-------0------||
G |--10----9---7---6---5-----5-5-----5----||
D |---------------------------------------||

D |---------------------------------------||
G#|--12---10---8---7---7-------3----------||
G |-----0----0---0---0---0-------0--------||
D |------------------------0-------0------||
G |--10----9---7---6---5-----5-5-----5----||
D |---------------------------------------||

[ Tab from: http://www.guitartabs.cc/tabs/l/low/kind_of_girl_tab.html ]
  Every time they lift you up  
D |---------------------------------------||
G#|--12---10---8---7---7-------3----------||
G |-----0----0---0---0---0-------0--------||
D |------------------------0-------0------||
G |--10----9---7---6---5-----5-5-----5----||
D |---------------------------------------||

  Every time more thread to cut
D |---------------------------------------||
G#|--12---10---8---7---7-------3----------||
G |-----0----0---0---0---0-------0--------||
D |------------------------0-------0------||
G |--10----9---7---6---5-----5-5-----5----||
D |---------------------------------------||

  Seems like you've been cut enough
D |---------------------------------------||
G#|--12---10---8---7---7-------3----------||
G |-----0----0---0---0---0-------0--------||
D |------------------------0-------0------||
G |--10----9---7---6---5-----5-5-----5----||
D |---------------------------------------||

  No, you're not that kind of girl
D |----------------------------------------------------------||
G#|---4-------4-------4-----4-5-7---5-------5-------5--------||
G |-----0-------0-------0-------------0-------0-------0------||
D |-------0-------0-------0-------------0 ------0-------0----||
G |--2------2-------2-------2-4-5-3-------3-------3-------3--||
D |----------------------------------------------------------||

  No, you could've had the world
D |----------------------------------------------------------------||
G#|---4-------4-------4-----4-5-7---5-------5-------7-------7------||
G |-----0-------0-------0-------------0-------0-------0-------0----||
D |-------0-------0-------0-------------0 ------0-------0-------0--||
G |--2------2-------2-------2-4-5-3-------3-------5-------5--------||
D |----------------------------------------------------------------||

  Now lesser things 
D |--------------------------------------------------|
G#|---7-------7-------8-------7-------5-------5------|
G |-----0-------0-------0-------0-------0-------0----|
D |-------0-------0-------0-------0-------0-------0--|
G |--6------6-------7-------5-------3-------3--------|
D |--------------------------------------------------|

  pull the strings
D |-----------------------------------|
G#|----8-------7-------5-------5------|
G |------0-------0-------0-------0----|
D |--------0-------0-------0-------0--|
G |--7-------5-------3-------3--------|
D |-----------------------------------|

  of priests and kings
D |-----------------------------------|
G#|----8-------7-------5-------5------|
G |------0-------0-------0-------0----|
D |--------0-------0-------0-------0--|
G |--7-------5-------3-------3--------|
D |-----------------------------------|

  No, you're not that kind of girl
D |----------------------------------------------------------||
G#|---4-------4-------4-----4-5-7---5-------5-------5--------||
G |-----0-------0-------0-------------0-------0-------0------||
D |-------0-------0-------0-------------0 ------0-------0----||
G |--2------2-------2-------2-4-5-3-------3-------3-------3--||
D |----------------------------------------------------------||

  No, you could've had the world
D |----------------------------------------------------------------|--0--|
G#|---4-------4-------4-----4-5-7---5-------5-------7-------7------|--2--|
G |-----0-------0-------0-------------0-------0-------0-------0----|--0--|
D |-------0-------0-------0-------------0 ------0-------0-------0--|--0--|
G |--2------2-------2-------2-4-5-3-------3-------5-------5--------|--0--|
D |----------------------------------------------------------------|--X--|
Comments