Low - It's In The Drugs Chords & Tabs

 

It's In The Drugs Chords & Tabs

Low Chords & Tabs

Version: 1 Type: Tab 0 ratings
1 star 2 stars 3 stars 4 stars 5 stars
comments

It's In The Drugs Tab

Low -It's In The Drugs (Transcription by Hanoihancock)
DGDGG#D

Intro (Guitar Alone) Doubling String 1&3 gives effect of 
                     12-string Sparhawk plays on recording 

D |----------2--2---|--5--O--|----------2--2--|--5--O--||
G#|----------2--2---|--7--2--|----------2--2--|--7--2--||
G |----------4--4---|--5--O--|----------4--4--|--5--0--||
D |-/5-4-2-0-2--2---|--5--O--|-/5-4-2-0-2--2--|--5--O--||
G |----------4--4---|--5--O--|----------4--4--|--5--O--||
D |-/5-4-2-0-2--2---|--X--X--|-/5-4-2-0-2--2--|--X--X--||


D |----------2--2--||
G#|----------2--2--||
G |----------4--4--||
D |-/5-4-2-0-2--2--||
G |----------4--4--||
D |-/5-4-2-0-2--2--||

Verse 1
             I  Was   A  Child          I Was   On Fire 
D |----------2--2---|--5--O--|----------2--2--|--5--O--||
G#|----------2--2---|--7--2--|----------2--2--|--7--2--||
G |----------4--4---|--5--O--|----------4--4--|--5--0--||
D |-/5-4-2-0-2--2---|--5--O--|-/5-4-2-0-2--2--|--5--O--||
G |----------4--4---|--5--O--|----------4--4--|--5--O--||
D |-/5-4-2-0-2--2---|--X--X--|-/5-4-2-0-2--2--|--X--X--||

           But I Stayed Alive While All Else Died 
D |----------2--2--|--5--4--|--3--2--|--2--7--||
G#|----------2--2--|--7--5--|--5--3--|--3--9--||
G |----------4--4--|--5--4--|--3--2--|--2--7--||
D |-/5-4-2-0-2--2--|--5--4--|--3--2--|--2--7--||
G |----------4--4--|--5--4--|--3--2--|--2--7--||
D |-/5-4-2-0-2--2--|--X--X--|--X--X--|--X--0--||

        I Held My Breath           What Could I Say
D |--7--2--2---|--5--O--|----------2--2--|--5--O--||
G#|--9--2--2---|--7--2--|----------2--2--|--7--2--||
G |--7--4--4---|--5--O--|----------4--4--|--5--0--||
D |--7--2--2---|--5--O--|-/5-4-2-0-2--2--|--5--O--||
G |--7--4--4---|--5--O--|----------4--4--|--5--O--||
D |--0--2--2---|--X--X--|-/5-4-2-0-2--2--|--X--X--||

             I Closed My Eyes Like Marvin Gaye, But Now I 've Had Enough 
D |----------2--2--|--5--4--|--3--2--|--2--7--||
G#|----------2--2--|--7--5--|--5--3--|--3--9--||
G |----------4--4--|--5--4--|--3--2--|--2--7--||
D |-/5-4-2-0-2--2--|--5--4--|--3--2--|--2--7--||
G |----------4--4--|--5--4--|--3--2--|--2--7--||
D |-/5-4-2-0-2--2--|--X--X--|--X--X--|--X--0--||

Chorus
Had Enough.It's In The Drugs      It's In The Drugs
D |--7--2--2---|--5--O--|----------2--2--|--5--O--||
G#|--9--2--2---|--7--2--|----------2--2--|--7--2--||
G |--7--4--4---|--5--O--|----------4--4--|--5--0--||
D |--7--2--2---|--5--O--|-/5-4-2-0-2--2--|--5--O--||
G |--7--4--4---|--5--O--|----------4--4--|--5--O--||
D |--0--2--2---|--X--X--|-/5-4-2-0-2--2--|--X--X--||


[ Tab from: http://www.guitartabs.cc/tabs/l/low/its_in_the_drugs_tab.html ]
             It's In the Drugs, Ah Ah   It's in the Drugs
D |----------2--2---|--5--O--|----------2--2--|--5--O--||
G#|----------2--2---|--7--2--|----------2--2--|--7--2--||
G |----------4--4---|--5--O--|----------4--4--|--5--0--||
D |-/5-4-2-0-2--2---|--5--O--|-/5-4-2-0-2--2--|--5--O--||
G |----------4--4---|--5--O--|----------4--4--|--5--O--||
D |-/5-4-2-0-2--2---|--X--X--|-/5-4-2-0-2--2--|--X--X--||

Accordian Interlude
D |----------2--2---|--5--O--|----------2--2--|--5--O--||
G#|----------2--2---|--7--2--|----------2--2--|--7--2--||
G |----------4--4---|--5--O--|----------4--4--|--5--0--||
D |-/5-4-2-0-2--2---|--5--O--|-/5-4-2-0-2--2--|--5--O--||
G |----------4--4---|--5--O--|----------4--4--|--5--O--||
D |-/5-4-2-0-2--2---|--X--X--|-/5-4-2-0-2--2--|--X--X--||


D |----------2--2--||
G#|----------2--2--||
G |----------4--4--||
D |-/5-4-2-0-2--2--||
G |----------4--4--||
D |-/5-4-2-0-2--2--||

Verse 2
             You Had Your Plan          A Heavy Hand 
D |----------2--2---|--5--O--|----------2--2--|--5--O--||
G#|----------2--2---|--7--2--|----------2--2--|--7--2--||
G |----------4--4---|--5--O--|----------4--4--|--5--0--||
D |-/5-4-2-0-2--2---|--5--O--|-/5-4-2-0-2--2--|--5--O--||
G |----------4--4---|--5--O--|----------4--4--|--5--O--||
D |-/5-4-2-0-2--2---|--X--X--|-/5-4-2-0-2--2--|--X--X--||

           But The Weight Was More Than You Could 
D |----------2--2--|--5--4--|--3--2--|--2--7--||
G#|----------2--2--|--7--5--|--5--3--|--3--9--||
G |----------4--4--|--5--4--|--3--2--|--2--7--||
D |-/5-4-2-0-2--2--|--5--4--|--3--2--|--2--7--||
G |----------4--4--|--5--4--|--3--2--|--2--7--||
D |-/5-4-2-0-2--2--|--X--X--|--X--X--|--X--0--||

  Stand. Breaking Like Dolls       Singing Like Birds
D |--7--2--2---|--5--O--|----------2--2--|--5--O--||
G#|--9--2--2---|--7--2--|----------2--2--|--7--2--||
G |--7--4--4---|--5--O--|----------4--4--|--5--0--||
D |--7--2--2---|--5--O--|-/5-4-2-0-2--2--|--5--O--||
G |--7--4--4---|--5--O--|----------4--4--|--5--O--||
D |--0--2--2---|--X--X--|-/5-4-2-0-2--2--|--X--X--||

             We always get what we deserve, But now I've    
D |----------2--2--|--5--4--|--3--2--|--2--7--||
G#|----------2--2--|--7--5--|--5--3--|--3--9--||
G |----------4--4--|--5--4--|--3--2--|--2--7--||
D |-/5-4-2-0-2--2--|--5--4--|--3--2--|--2--7--||
G |----------4--4--|--5--4--|--3--2--|--2--7--||
D |-/5-4-2-0-2--2--|--X--X--|--X--X--|--X--0--||






Had Enough.It's In The Drugs       It's In The Drugs
D |--7--2--2---|--5--O--|----------2--2--|--5--O--||
G#|--9--2--2---|--7--2--|----------2--2--|--7--2--||
G |--7--4--4---|--5--O--|----------4--4--|--5--0--||
D |--7--2--2---|--5--O--|-/5-4-2-0-2--2--|--5--O--||
G |--7--4--4---|--5--O--|----------4--4--|--5--O--||
D |--0--2--2---|--X--X--|-/5-4-2-0-2--2--|--X--X--||

             It's In the Drugs, Ah Ah   It's in the Drugs
D |----------2--2---|--5--O--|----------2--2--|--5--O--||
G#|----------2--2---|--7--2--|----------2--2--|--7--2--||
G |----------4--4---|--5--O--|----------4--4--|--5--0--||
D |-/5-4-2-0-2--2---|--5--O--|-/5-4-2-0-2--2--|--5--O--||
G |----------4--4---|--5--O--|----------4--4--|--5--O--||
D |-/5-4-2-0-2--2---|--X--X--|-/5-4-2-0-2--2--|--X--X--||
Comments