Lovin Spoonful - Summer In The City Chords & Tabs

 

Summer In The City Chords & Tabs

Lovin Spoonful Chords & Tabs

Version: 1 Type: Bass Tab 0 ratings
1 star 2 stars 3 stars 4 stars 5 stars
comments

Summer In The City Bass Tab

Summer In The City -  Lovin' Spoonful

  intro 
  (x3)
G|-------|
D|6---5r-|
A|-------|
E|-------|
[ Tab from: http://www.guitartabs.cc/tabs/l/lovin_spoonful/summer_in_the_city_btab.html ]
                    bridge 
  verse (x2)       "all around people lookin' half dead"
G|----------------|------------/9999\5555--|
D|----------------|------------------------|
A|----------------|------------------------|
E|8-8-6-6-5-5-3-3-|333377778888------------|

  chorus riff     second half of chorus riff
G|---------------|--7---75---|
D|-------6h8-6---|57------5--|
A|8-8-8-8-----8--|-----------|
E|---------------|-----------|

tabbed by Achilles (blue_sincere@hotmail.com)

Comments