Loverboy - Turn Me Loose Chords & Tabs

 

Turn Me Loose Chords & Tabs

Loverboy Chords & Tabs

Version: 2 Type: Tab 0 ratings
1 star 2 stars 3 stars 4 stars 5 stars
comments

Turn Me Loose Tab

Band - Loverboy
Song - Turn Me Loose

e|-3--15-|
B|-------|
G|-------|
D|-------|
A|-------|
E|-------|

e|-------------------------------------------------|
B|-------------------------------------------------|
G|-------------------------------------------------|
D|---3--3----3--3----3--4--5--5----5--4--3--3----3-|
A|-------------------------------------------------|
E|-1--1----1--1----1---2--3--3----3--2--1--1----1--|
[ Tab from: http://www.guitartabs.cc/tabs/l/loverboy/turn_me_loose_tab_ver_2.html ]
E|----------------------------3---------------------------------------------|	
B|--------3---------3---------3------------------------3--------------------|
G|--------3---------3---------0------------------------3----3--5^1s3--------|
D|-5-5-5--3--5-5-5--3--3-3-3-----3-3-4-4---5-5-5-5-5---3--5-----------5-----|
A|-5-5-5-----5-5-5-----3-3-3-----3-3-4-4---5-5-5-5-5------------------------|
E|-3-3-3-----3-3-3-----1-1-1-----1-1-2-2---3-3-3-3-3------------------------|

E|---------------------3-3-3------3---------------------------3--3/12--15\3-|
B|--------3------------3-3-3-3------6-3---3-3p(1)-------------3--3/12--15\3-|
G|--------3-------5-5--4-4-4-3--5-------5---------(3)h--------0-------------|
D|-5-5-5--3---------5--5-5-5-3--------------------------3-3-3---------------|
A|-5-5-5---------------5-5-5----------------------------3-3-3---------------|
E|-3-3-3-----3-3-------3-3-3----------------------------1-1-1---------------|

E|---------------------------|
B|---------------------------|
G|-------5v1s3h5p(3)---------|
D|-------------------3h5p(3)-|
A|-5-5-5---------------------|
E|-3-3-3---------------------|

E|---------------------|
B|---------------------|
G|---------------------|
D|---------------------| repeat
A|--5-5-5-5-5--4-3-3-4-|
E|-3-3-3-3-3--2-1-1-2--|
Comments