Lovedrug - Blackout Chords & Tabs

 

Blackout Chords & Tabs

Lovedrug Chords & Tabs

Version: 1 Type: Tab 0 ratings
1 star 2 stars 3 stars 4 stars 5 stars
comments

Blackout Tab

   
Artist:    Lovedrug
Title:     Blackout
Album:     Pretend You're Alive
Track:     2
Tabber:    Ryan Lear
Email:     RyanLear@gmail.com

Whoops, forgot to say that it is actually in Flat Tuning, half a step down.

Tuning:    Eb Ab Db Gb Bb Eb

Intro
(0:00 - 0:19)
----------------------------------------------------------------------|
----------------------------------------------------------------------|
----------------------------------------------------------------------|
----0----0---0---0----0---0---0-----0----0---0---0---0----0---0-------| x 2
--2----2---0----------------0---0h2----2---0----------------0---------|
---------------3----3---0----------------------3----3---0-------------|

Riff - Guitar 2
(0:09)
-----------------------------------|
-----------------------------------|  1 x over the beginning of the second time through
--11b12b11~--11h12r11h12r11--------|      the intro.
-----------------------------------|
---------------------------12~-----|
-----------------------------------|


Verse
(0:19 - 0:42)
-------------------------------------------------------------------     -3-|
-------------------------------------------------------------------     -3-|
-------------------------------------------------------------------     -0-|
----0----0---0---0----0---0---0-----0----0---0---0---0----0---0---- x 2 -0-|
--2----2---0----------------0---0h2----2---0----------------0------     -x-|
---------------3----3---0----------------------3----3---0----------     -3-|


Verse
(0:42 - 1:22)
-------------------------------------------------------------------|
-------------------------------------------------------------------|
-------------------------------------------------------------------|
----0----0---0---0----0---0---0-----0----0---0---0---0----0---0----| x 4
--2----2---0----------------0---0h2----2---0----------------0------|
---------------3----3---0----------------------3----3---0----------|


(1:23 - 2:37)
----------------------------------------------------------------------------------|
-------------------------------------------------7-8-7--------------------2-3-2---|
------------------2-2-2-2-4-2-4--4-4-4-4-4-4-4---7-9-7--------------------2-4-2---|
--2-2-2-2-4-0-----2-2-2-2-4-2-4--4-4-4-4-4-4-4----------5-5-5-5-5-5-5-5-----------|
--------------2~--0-0-0-0-2-0-2--2-2-2-2-2-2-2----------5-5-5-5-5-5-5-5-----------|
--------------------------------------------------------3-3-3-3-3-3-3-3-----------|

[ Tab from: http://www.guitartabs.cc/tabs/l/lovedrug/blackout_tab.html ]
---------------------------  ---     ---     ---     ---     ---     ---     ---     ---
-------------------2-3-2---  ---     ---     ---     ---     ---     ---     ---     ---
-7-7-7-7-7-7-7-7---2-4-2---  -4- x16 --- x16 -7- x16 --- x16 -4- x16 --- x16 -7- x16 --- x16
-7-7-7-7-7-7-7-7-----------  -4-     -5-     -7-     -5-     -4-     -5-     -7-     -5-
-5-5-5-5-5-5-5-5-----------  -2-     -5-     -5-     -5-     -2-     -5-     -5-     -5-
---------------------------  ---     -3-     ---     -3-     ---     -3-     ---     -3-


-----------------|
-----------------|
-2---4-----------|
-2---4---5~------|
-0---2---5~------|
---------3~------|


(2:38 - 2:48)
----------------------------------------------------------------------|
----------------------------------------------------------------------|
----------------------------------------------------------------------|
----0----0---0---0----0---0---0-----0----0---0---0---0----0---0-------| x 1
--2----2---0----------------0---0h2----2---0----------------0---------|
---------------3----3---0----------------------3----3---0-------------|

Riff - Guitar 2
(2:38)
-----------------------------------|
-----------------------------------|  1 x over the previous
--11b12b11~--11h12r11h12r11--------|
-----------------------------------|
---------------------------12~-----|
-----------------------------------|


(2:48 - 3:28)
----------------------------------------------------------------------|
----------------------------------------------------------------------|
----------------------------------------------------------------------|
----0----0---0---0----0---0---0-----0----0---0---0---0----0---0-------| x 4
--2----2---0----------------0---0h2----2---0----------------0---------|
---------------3----3---0----------------------3----3---0-------------|


(3:29)
------------------------------------------------|
------------------------------------------------|
------------------2-2-2-2-4-2-4--4-4-4-4-4-4-4--|
--2-2-2-2-4-0-----2-2-2-2-4-2-4--4-4-4-4-4-4-4--|
--------------2~--0-0-0-0-2-0-2--2-2-2-2-2-2-2--|
------------------------------------------------|


(3:36)
 ---     ---     ---     ---     ---     ---     ---     ---
 ---     ---     ---     ---     ---     ---     ---     ---
 -4- x16 --- x16 -7- x16 --- x16 -4- x16 --- x16 -7- x16 --- x16
 -4-     -5-     -7-     -5-     -4-     -5-     -7-     -5-
 -2-     -5-     -5-     -5-     -2-     -5-     -5-     -5-
 ---     -3-     ---     -3-     ---     -3-     ---     -3-

(4:18)
-----------------|
-----------------|
-2---4-----------|
-2---4---5~------|
-0---2---5~------|
---------3~------|


(4:24)                                                 (5:26)
----7----7----7----7----7----7----7--------------      ---|
---7----7----7----7----7----7----7----7h8r7------      ---|
-------------------------------------------7-----      ---|
------------------------------------------------- x6   -5-|
-------------------------------------------------      -5-|
-3----3----5----5----7----7----5----5------------      -3-|
Comments