Love Bites - Hes Fit Chords & Tabs

 

Hes Fit Chords & Tabs

Love Bites Chords & Tabs

Version: 1 Type: Bass Tab

Hes Fit Bass Tab

Love Bites - He's Fit

This is my first bass tab so it isn't perfect. Any Corrections... email paulandben@hotmail.com.

/=slide
~=let ring


Intro
G|----------------------------------------------|
D|----------------------------------------------|X1
A|--7~/19/--------------------------------------|
E|----------------------------------------------|


Intro 2
G|----------------------------------------------|
D|----------------------------------------------|X2
A|-7-77-----------------------------------------|
E|------55-88-33--------------------------------|


Verse
G|----------------------------------------------|
D|-----------------------------------55-8-------|X1
A|-7-7777--------10-8-7-------------------------|
E|---------5-555--------8-8888--3-33------------|

G|----------------------------------------------|
D|----------------------------------------------|X1
A|-7-7777---------------------------------------|
E|---------5-5555--8-8888--3-3333---------------|

G|----------------------------------------------|
D|----------------------------------------------|X1
A|----------------------------------------------|
E|--3-4-5---------------------------------------|

G|----------------------------------------------|
D|-----------------------------------55-8-------|X1
A|-7-7777--------10-8-7-------------------------|
E|---------5-555--------8-8888--3-33------------|

G|----------------------------------------------|
D|----------------------------------------------|X1
A|-7-7777---------------------------------------|
E|---------5-5555--8-8888--3-3333---------------|

G|----------------------------------------------|
D|----------------------------------------------|X1
A|----------------------------------------------|
E|--3-4-5---------------------------------------|


Chorus
G|----------------------------------------------|
D|----------------------------------------------|X1
A|----------3-3333------------------------------|
E|--1-1111----------3-3333--3-3333--------------|

G|----------------------------------------------|
D|----------------------------------------------|X1
A|----------3-3333------------10-8-7-5----------|
E|--1-1111----------3-3333--3-------------------|

G|----------------------------------------------|
D|----------------------------------------------|X1
A|----------3-3333------------------------------|
E|--1-1111----------3-3333--3-3333--------------|

G|----------------------------------------------|
D|----------------------------------------------|X1
A|-----------3-33-------------------------------|
E|--1-1-111--------3~---------------------------|

G|----------------------------------------------|
D|----------------------------------------------|X1
A|----------------------------------------------|
E|--3-4-5---------------------------------------|


Verse 2
G|----------------------------------------------|
D|----------------------------------------------|X1
A|--181818/5------------------------------------|
E|----------------------------------------------|

[ Tab from: http://www.guitartabs.cc/tabs/l/love_bites/hes_fit_btab.html ]
Verse
G|----------------------------------------------|
D|---------------------------------------55-8---|X1
A|-7-7777----------10-8-7-----------------------|
E|---------5-5555---------8-8888--3-3333--------|

G|----------------------------------------------|
D|----------------------------------------------|X1
A|-7-7777---------------------------------------|
E|---------5-5555--8-8888--3-3333---------------|

G|----------------------------------------------|
D|----------------------------------------------|X1
A|----------------------------------------------|
E|--3-4-5---------------------------------------|


Chorus 2
G|----------------------------------------------|
D|----------------------------------------------|X1
A|----------3-3333------------------------------|
E|--1-1111----------3-3333--3-3333--------------|

G|----------------------------------------------|
D|----------------------------------------------|X1
A|----------3-3333------------10-8-7-5----------|
E|--1-1111----------3-3333--3-------------------|

G|----------------------------------------------|
D|----------------------------------------------|X2
A|----------3-3333------------------------------|
E|--1-1111----------3-3333--3-3333--------------|


Bridge
G|----------------------------------------------|
D|----------------------------------------------|X1
A|--3-3333------3/7~----------------------------|
E|----------3~--------1~--3~--------------------|

G|----------------------------------------------------------------|
D|----------------------------------------------------------------|X1
A|--3-3333-3-3333-----------------7-7777--7-7777------------------|
E|-----------------3-3333-3-3333------------------1-1111--3-3333--|


Guitar Solo
G|----------------------------------------------|
D|----------------------------------------------|X1
A|----------3-3333----------10-8-7-5------------|
E|--1-1111----------3-3333----------------------|

G|----------------------------------------------|
D|----------------------------------------------|X2
A|----------3-3333------------------------------|
E|--1-1111----------3-3333--3-3333--------------|

G|----------------------------------------------|
D|----------------------------------------------|X1
A|-----------3-33-------------------------------|
E|--1-1-111--------3/15~------------------------|


Chorus 4
G|----------------------------------------------|
D|----------------------------------------------|X2
A|-----------3-333------------------------------|
E|--1-1-111---------3-3-333---------------------|

G|----------------------------------------------|
D|----------------------------------------------|X1
A|----------3-3333------------------------------|
E|--1-1111----------3-3333--3-3333--------------|

G|----------------------------------------------|
D|----------------------------------------------|X1
A|----------3-3333----------10-8-7-5------------|
E|--1-1111----------3-3333----------------------|

G|----------------------------------------------|
D|----------------------------------------------|X2
A|----------3-3333------------------------------|
E|--1-1111----------3-3333--3-3333--------------|

G|----------------------------------------------|
D|----------------------------------------------|X1
A|-----------3-33-------------------------------|
E|--1-1-111--------3~---------------------------|