Love Apple - Winnie Chords & Tabs

 

Winnie Chords & Tabs

Love Apple Chords & Tabs

Version: 1 Type: Bass Tab 0 ratings
1 star 2 stars 3 stars 4 stars 5 stars
comments

Winnie Bass Tab

Love Apple - Winnie

reminders

-like most tabs, you're definitely gonna need to listen to the song 
on this one.
-copy and paste this tab into microsoft word and change the font 
to courier new so everything is lined up properly

verse
|-------------------------------------|
|-----9-------6-------4---------------|
|-7-7---7/4-4---4/2-2---2---------4-5-|
|-------------------------5-5-5-5-----|

pre chorus
|-------------------------------------|
|-----9-------6-------4---------------|
|-7-7---7/4-4---4/2-2---2-------------|
|-------------------------5-5-5-5-4-2-|

chorus 1
|---------------------------------------------------|
|---------------------------------------------------|
|-------------------------------2-4-4-4-4-4-4-4-3-2-|
|-0-0-0-0-0-0-0-2-4-4-4-4-4-4-4---------------------|
[ Tab from: http://www.guitartabs.cc/tabs/l/love_apple/winnie_btab.html ]
chorus 2
|---------------------------------------------------|
|---------------------------------------------------|
|-7-7-7-7-7-7-7-----------------2-4-4-4-4-4-4-4-3-2-|
|---------------2-4-4-4-4-4-4-4---------------------|

bridge
|------------------------------|
|------------------------------|
|----1-2---7---4----h5---0-1-2-|
|-5-------------------5--------|

end riff
|---------------------------------------|
|-----9-------6-------4-----------------|
|-7-7---7/4-4---4/2-2---2---------------|
|-------------------------5-5-5-5-4-2-0-|
                         (ritard,)^ ^ ^ (and let it ring out)

layout

verse   x9
pre chorus x1
chorus 1 x1
chorus 2 x1
verse x6
chorus 2 x1
chorus 1 x1
verse x2
bridge x1
verse x2
chorus 2 x1
chorus 1 x1
verse x5
end riff x1

NOTE: after both choruses are played, you're gonna wanna add this in there,

|-------|
|-------|
|-2-4-5-|
|-------|
Comments