Love Apple - Mikey Saves The Goondocks Chords & Tabs

 

Mikey Saves The Goondocks Chords & Tabs

Love Apple Chords & Tabs

Version: 1 Type: Tab 0 ratings
1 star 2 stars 3 stars 4 stars 5 stars
comments

Mikey Saves The Goondocks Tab

   
Band: Love Apple
Song: Mikey saves the goondocks



Verse Chords:
[ Tab from: http://www.guitartabs.cc/tabs/l/love_apple/mikey_saves_the_goondocks_tab.html ]
E:--3-----3----3----3----2---0-------
B:--3-----3----3-----------------3---
G:--0-----0----0---------------------
D:--0-----2----2---------------------
A:--2-----0----2---------------------
E:--3-----2----0---------------------

post-verse thing:

E:--0-----2----
B:--0-----3----
G:--0-----2----
D:--2-----0----
A:--3-----0----
E:--0-----0----

Chorus:

G, D, C





























------------------------------
"Hi Mom!" - Sitinthecorner.com
Comments