Love And Theft - Angel Eyes Chords & Tabs

 

Angel Eyes Chords & Tabs

Love And Theft Chords & Tabs

Version: 1 Type: Bass Tab 0 ratings
1 star 2 stars 3 stars 4 stars 5 stars
comments

Angel Eyes Bass Tab

G|-----------------------------------------------------------------|
D|-----------------------------------------------------------------|
A|---4-4-----------------------------4-4---------------------------|
D|-------6-6---6-----1-1-6-6---6---------6-6---6-----1-1-6-6---6---|

0:10
G|------------------------------------------------------------------|
D|---------------------------------------------6--------------------|
A|-4-4---------4-6-------------4-6-4-4-------6---4-6---6------------|
D|-----------6-----1-1-------6-----------------------------6-8-10-6-|

0:19
G|-----------------------------------------------------------------|
D|-----------------------------------------------------------------|
A|-4-4---------4---6-6---------4-6-4-4---------4-6-------------3---|
D|-----------6---6-----------6---------------6-----1---5---6-----6-|

0:28
G|------------------------------------------------------------------|
D|------------------------------------------------------------------|
A|-4---4---------------------------4---4-----------6-6-6-6----------|
D|-------6-6---6---1---1-3-3---3---------6-6---6-----------6-8-10-6-|

0:37
G|-----------------------------------------------------------------|
D|-----------------------------------------------------------------|
A|-4---4---------------------------4-4-------------6-6-------------|
D|-------6-6---6---1---1-3-3---3-----------------------------------|

G|---------------------------------|
D|---------------------------------|
A|-4-4-----------------------------|
D|-----------------1---------------|

0:50
G|-----------------------------------------------------------------|
D|-----------------------------------------------------------------|
A|-4-4-4-------4-6-------------4---4-----------4-6-------------3---|
D|-------6-6-------1-1-1-6-6-----6-------6-6-------1---5---6-----6-|

0:59
G|-----------------------------------------------------------------|
D|-----------------------------6-----------------------------------|
A|-4-4---------4---6-6-------6-----4-4---------4---6-----------3---|
D|-----------6---6---------------6-----------6---6-----5---6-6---6-|

1:08
G|-----------------------------------------------------------------|
D|-----------------------------------------------------------------|
A|-4---4-------4---6---6-------4---4-----------4---6-----------3---|
D|-----------6---6-----------6---6-----------6---6-----5---6-------|

1:17
G|------------------------------------------------------------------|
D|------------------------------------------------------------------|
A|-4---4---------------------------4---4-----------6-----6----------|
D|-------6-6---6---1---1-3-3---3---------6-6---6-----5h6---6-8-10-6-|
[ Tab from: http://www.guitartabs.cc/tabs/l/love_and_theft/angel_eyes_btab.html ]
1:26
G|-----------------------------------------------------------------|
D|-----------------------------------------------------------------|
A|-4---4---------------------------4-4-------------6-6-------------|
D|-------6-6---6---1---1-3-3---3-----------------------------------|

G|---------------------------------|
D|---------------------------------|
A|-4-4-------------6-6---------1-3-|
D|-------------------------6-------|

1:39
G|-----------------------------------------------------------------|
D|-----3-------------------------------------3-5-6-----------------|
A|-------------------------------------1-3-4-----------1-3-4-4-3-1-|
D|-------3-3-3-3-3-3-3-3-3-3-3-1-1-6---------------6---------------|

1:48
G|-----------------------------------------------------------------|
D|-----------------------------------------------------------------|
A|---------------------------------4---4---3-4-3---6---6---6-8-6-3-|
D|-3-3-3-3-3-3-3-3-3-3-3-3-3-3-1-1-------6-------6---6---6---------|

1:58
G|-----------------------------------------------------------------|
D|-----------------------------------------------------------------|
A|-4-4-4-----------6-6-6-------4---4-4-4-----------6-------1---6---|
D|-------6-6---6---------6-6-----6-------6-6---6-------5-----------|

2:06
G|------------------------------|
D|-------------13----13---------|
A|-10-10-13-13----13------------|
D|------------------------11\---|

Rest

2:15
G|---|-----------------------------------------------------------------|
D|---|-------------------------------------5-6-------------------------|
A|---|-4---4-------1-3-6---6-------3---4-4---------3-4-6-6-3-1---------|
D|-1-|-------6-6-------------6-6-----6---------6---------------6-6-6-6-|

2:26
G|-----------------------------------------------------------------|
D|-----------------------------------------------------------------|
A|-4---4---------------------------4---3---------------------------|
D|-------6-6---6---1---1-3-3---3---------8-6---6-6-5---5---6-6-6-6-|

2:35
G|-----------------------------------------------------------------|
D|-----------------------------------------------------------------|
A|-4---4---------------------------4-4-------------6-6-------------|
D|-------6-6---6---1---1-3-3---3-----------------------------------|

2:44
G|-------------------------------------------------|
D|-------------------------------------------------|
A|-4-4-------------6---6---6---6---6---6---6---6-6-|
D|-------------------8---8---8---8---8---8---8-----|

2:50
G|-----------------------------------------------------------------|
D|-----------------------------------------------------------------|
A|---4-4-------------6-6-----------1-3-4-------------6-6-----------|
D|-------6-6---6---------6-6---6---------6-6---6---------6-6-------|
Tabbed by Dave Vucko
Comments