Love - You I'll Be Following - Intro Chords & Tabs

 

You I'll Be Following - Intro Chords & Tabs

Love Chords & Tabs

Version: 1 Type: Tab 0 ratings
1 star 2 stars 3 stars 4 stars 5 stars
comments

You I'll Be Following - Intro Tab

   
#----------------------------------PLEASE NOTE--------------------------------#
#This file is the author's own work and represents their interpretation of the#
#song. You may only use this file for private study, scholarship, or research.#
#-----------------------------------------------------------------------------#
                        "You I'll Be Following"
                              (Arthur Lee)

Intro:

(electric 12-string; band enters 3rd bar)

                                     A
 v   v   v   v     v   v   v   v     v   v   v   v
---2---2---2-----|-0-0-0-0-0-0-0-0-|-0---0-0-0---0-0-|---
-3---3---3---3-0-|-2-2-2-2-2-2-2-0-|-2---2-0-2---2-0-|---
-----------------|-----------------|-----------------|-%-
-----------------|-----------------|-----------------|---
-----------------|-----------------|-----------------|---
-----------------|-----------------|-----------------|---

VERSE 1 TO 3

Instrumental break:

D        G        E        A                 [2X]
/ / / /  / / / /  / / / /  / / / /  / / / /

G   D   A
Oh, oh, oh

VERSE 4

Coda:

 (A)                                  D
  / / / /  / / / /  / / / /  / / / /  /
(oh)


-- another ace 60's tab from Andrew Rogers


****************************************************************************************************************

****************************************************************************************************************



Date: Thu, 14 Nov 1996 14:49:33 -0500
From: Andrew Rogers 
Subject: ./l/love/you_set_the_scene.crd
[ Tab from: http://www.guitartabs.cc/tabs/l/love/you_ill_be_following_intro_tab.html ]
                          "You Set The Scene"
                              (Arthur Lee)
                                    
                         --- Part I (0:00) ---

Intro:

Acoustic guitar [8X]:

B7addE
 v   v   v   v    
---------0-------
-------7-------7-
-----8-------8---
---9-------9-----
-0---------------
-----------------

Bass [enters 5th time]

 v   v   v   v     v   v   v   v
-----------------|-----------------
-----------------|-----------------
-2-----2-2-----2-|-2-2---2-2-----2-
-----------------|-----------------

-- another ace 60's tab from Andrew Rogers


**************************************************************************************************************************

**************************************************************************************************************************


"She Comes In Colors"
                              (Arthur Lee)

Intro [fingerpicked electric, 2X]:

A7
 v   v   v   v
---------3-------
-------2---------
-----0-----0---0-
---2---------2---
-0---------------
-----------------

verse1
chorus
verse2


[repeat chorus]

[flute break over verse chords]

[repeat chorus]

Instrumental [harpsichord arr. for guitar; 2X]:

 C       G         D       F         A7
 v   v   v   v     v   v   v   v     / / / /  / / / /
---8-------------|-------------8---|-
----8------------|---7810----10----|-
-----9-------10--|-79----7-10------|-
-------10--12----|-----------------|-
---------10------|-----------------|-
-----------------|-----------------|-

[repeat chorus]

Verse 3

[repeat chorus]

[repeat instrumental; end cold on A7 second time through]


-- another ace 60's tab from Andrew Rogers

Comments