Love - The Castle Chords & Tabs

 

The Castle Chords & Tabs

Love Chords & Tabs

Version: 1 Type: Tab 0 ratings
1 star 2 stars 3 stars 4 stars 5 stars
comments

The Castle Tab

   
#----------------------------------PLEASE NOTE--------------------------------#
#This file is the author's own work and represents their interpretation of the#
#song. You may only use this file for private study, scholarship, or research.#
#-----------------------------------------------------------------------------#

Date: Sat, 23 May 1998 11:28:12 -0400
From: Dann Butterfield 
Subject: l/love/the_castle.tab

---------------

The Castle
(Arthur Lee)

LOVE
>From Da Capo, 1967

****
Lyrics have been corrected according to Andrew Rogers' version.
****

Part A:

Am/E              Em/B              C                  Fmaj7
---0-------0-----|---0-------0-----|---0-------0-----|---0-------0-----
-------1-------1-|-------0-------0-|-------1-------1-|-------1-------1-
-----2-------2---|-----0-------0---|-----0-------0---|-----2-------2---
-2-------2-------|-----------------|-----------------|-3-------3-------
-----------------|-2-------2-------|-3-------3-------|-----------------
-----------------|-----------------|-----------------|-----------------

Am/E                                A/E
---0-------0-----|---0-------0-----|---0-------0-----|---0-------0-----
-------1-------1-|-------1-------1-|-------2-------2-|-------2-------2-
-----2-------2---|-----2-------2---|-----2-------2---|-----2-------2---
-2-------2-------|-2-------2-------|-2-------2-------|-2-------2-------
-----------------|-----------------|-----------------|-----------------
-----------------|-----------------|-----------------|-----------------

D                 F                 G                 G/B
---2-------2-----|---0-------0-----|---3-------3-----|---3-------3-----
-------1-------1-|-------1-------1-|-------0-------0-|-------0-------0-
-----2-------2---|-----2-------2---|-----0-------0---|-----0-------0---
-0-------0-------|-3-------3-------|-----------------|-2-------2-------
-----------------|-----------------|-3-------3-------|-----------------
-----------------|-----------------|-----------------|-----------------

Part B:

C         G         Am        C
---------|---------|---------|-----|---0-----|---0-----|---0-----
---1-----|---0-----|---1-----|-----|-------1-|-------1-|-------1-
-------0-|-------0-|-------2-|---0-|-----0---|-----0---|-----0---
-----2---|-----0---|-----2---|-----|---------|---------|---------
-3-------|---------|-0-------|-3---|-3-------|-3-------|-3-------
---------|-3-------|---------|-----|---------|---------|---------

D         Fmaj7     C/E       A         A (x3)
---2-----|---0-----|---0-----|---------|---0-----
-------1-|-------1-|-------1-|-------2-|-------2-
-----2---|-----2---|-----0---|-----2---|-----2---
-0-------|-3-------|-2-------|---------|---------
---------|---------|---------|-0-------|-0-------
---------|---------|---------|---------|---------

Em        Em (x3)   G
---0-----|---0-----|-3-------|---3-----|---3-----|---------
-0-----0-|-------0-|---------|---------|---------|---0-----
-0---0---|-----0---|-------0-|-------0-|-------0-|-------0-
-2-------|-2-------|-----0---|-----0---|-----0---|-----0---
-2-------|---------|---------|---------|---------|---------
---------|---------|-3-------|-3-------|-3-------|-3-------


Part C (verses; fingerpicking as per Part B)
[ Tab from: http://www.guitartabs.cc/tabs/l/love/the_castle_tab.html ]
bass only):
-------7-------5-------4----
-----7-------5-------4------
-5-5-----3-3-----2-2--------
-------------------------3--

(repeat Part B)

Part D:

---------|---------|---------|---------|---0-----|---0-----|---0-----
---------|---------|---------|---------|-------1-|-------1-|---------
---------|-0-------|---------|---------|-----0---|-----0---|-----0---
-------2-|---2-----|---------|---------|---------|---------|---------
-3---3---|-----3---|-0---0-2-|-3-------|-3-------|-3-------|-3-------
---3-----|-------3-|---3-----|---------|---------|---------|---------

---------|---------|---------|---------|---0-----|---0-----|---0-----
---------|---------|---------|---------|-------2-|-------2-|---------
---------|-2-------|---------|---------|-----2---|-----2---|-----2---
-0---0-3-|---3-0---|-0-------|---------|---------|---------|---------
---3-----|-------3-|---3-2---|-0-------|-0-------|-0-------|-0-------
---------|---------|-------3-|---------|---------|---------|---------

Em        Em (x3)   G
---0-----|---0-----|-3-------|---------|---------|---------
-0-----0-|-------0-|---------|---0-----|---0-----|---0-----
-0---0---|-----0---|-------0-|-------0-|-------0-|-------0-
-2-------|-2-------|-----0---|-----0---|-----0---|-----0---
-2-------|---------|---------|---------|---------|---------
---------|---------|-3-------|-3-------|-3-------|-3-------


(repeat Part D)

(repeat Part A, strumming on the first beat 
                of the quarter-note chords)

Part E:
C         G         Am        C
---------|---------|---------|-----|-----|---0-----|---0-----
---1-----|---0-----|---1-----|-----|-----|-------1-|-------1-
-------0-|-------0-|-------2-|---0-|---0-|-----0---|-----0---
-----2---|-----0---|-----2---|-----|-----|---------|---------
-3-------|---------|-0-------|-3---|-3---|-3-------|-3-------
---------|-3-------|---------|-----|-----|---------|---------

---------|---------|---------|---------
---------|---2-----|---2-----|---2-----
-------0-|-------0-|-------0-|-------0-
-----3---|-----3---|-----3---|-----3---
-4-------|-4-------|-4-------|-4-------
---------|---------|---------|---------


---------|---------|---------|---------
---3-----|---3-----|---3-----|---3-----
-------0-|-------0-|-------0-|-------0-
-----4---|-----4---|-----4---|-----4---
-5-------|-5-------|-5-------|-5-------
---------|---------|---------|---------


--------------------0-0--
--------------------0-0--
--------------------1-1--
-----0-2-3_2-0------2-2--
-2_3-----------3-2--2-2--
--------------------0-0-- (x2)

----------------------------
----------------------------
----------------------------
-2-3-0-2-(random notes, ending on a B7 chord)
----------------------------
----------------------------

-0--0---0--0---0--0---0--0---0--0---0--0---0-
-2--2---2--2---2--2---2--2---2--2---2--2---2-
-2--2_3-2--2_3-2--2_3-2--2_3-2--2_3-2--2_3-2-
-2--2---2--2---2--2---2--2---2--2---2--2---2-
-0--0---0--0---0--0---0--0---0--0---0--0---0-
---------------------------------------------

E F D

-0--0---0--0---0--0---0--0---0--0---0-
-2--2---2--2---2--2---2--2---2--2---2-
-2--2_3-2--2_3-2--2_3-2--2_3-2--2_3-2-
-2--2---2--2---2--2---2--2---2--2---2-
-0--0---0--0---0--0---0--0---0--0---0-
--------------------------------------

G G7 G

** end **



****************
submitted by Dann Butterfield
transcribed by Shawn Trotter and Dann Butterfield
comments/corrections to drumbo@geocities.com
****************************************************************
Comments