Love - My Little Red Book Chords & Tabs

 

My Little Red Book Chords & Tabs

Love Chords & Tabs

Version: 1 Type: Tab 0 ratings
1 star 2 stars 3 stars 4 stars 5 stars
comments

My Little Red Book Tab

   
----------------------------------PLEASE NOTE--------------------------------#
#This file is the author's own work and represents their interpretation of the#
#song. You may only use this file for private study, scholarship, or research.#
#-----------------------------------------------------------------------------#
                          "My Little Red Book"
                           (Bacharach-David)

Intro:

Tambourine, 8 beats

Bass (6X; drums enter on 8th beat, 1st time; rhythm guitar enters
      on 8th beat, 2nd time)

(B)                           (C)
 v   v   v   v     v   v   v   v
-----------------|-----------------
-----------------|-----------------
-2---2---2---2---|-2---2---2---3---
-----------------|-----------------

Lead guitar (enters 5th time):
[ Tab from: http://www.guitartabs.cc/tabs/l/love/my_little_red_book_tab.html ]
 B                             C
 v   v   v   v     v   v   v   v
-----------------|-----------------
-----------------|-----------------
-----4---4---4---|-4---4---3-4-3---
-----------------|-----------------
-----------------|-----------------
-----------------|-----------------

 B                             C
 v   v   v   v     v   v   v   v
-----------------|-----------------
-----------------|-----------------
-----------------|-----------------
-6---6---4-6-4---|-4---------------
-----------------|-------6-6-------
-----------------|-----------------


Coda:

Tambourine, 8 beats

Bass (4X, as per intro; drums enter on 8th beat, 1st time;
      rhythm guitar enters on 8th beat, 2nd time; lead guitar
      doubles rhythm guitar, 4th time; end cold on Am)


-- another ace 60's tab from Andrew Rogers
Comments