Louise Attaque - Je Tammene Au Vent Chords & Tabs

 

Je Tammene Au Vent Chords & Tabs

Louise Attaque Chords & Tabs

Version: 1 Type: Bass Tab

Je Tammene Au Vent Bass Tab

artist: Louise Attaque
song: Je t'emmène au vent
tabber: Steph (cyberbassist@hotmail.com)


intro

G-|---------------------------------------|
D-|---------------------------------------|
A-|----rest-------------------------------|
E-|------------2-2-2-2-2-2-2-2--4---------|

verse/solo

G-|------------------------------------------------------------------------|
D-|------------------------------------------------------------------------|
A-|--------------------2-2-2-2-2-2-2-2--------------------2-2-2-2-2-2-2-2--|
E-|-4-4-4-4-4-4---2-4------------------4-4-4-4-4-4-4-2-4-------------------|

[ Tab from: http://www.guitartabs.cc/tabs/l/louise_attaque/je_tammene_au_vent_btab.html ]
G-|------------------------------------------------------------------------|
D-|------------------------------------------------------------------------|
A-|-4-4-4-4-4-4-6-6----------6-6-------------------------------------------|
E-|-----------------4-4-4-4-------4-4-----2-2-2-2-2-2-2----4---------------|


    Punch!

G-|------------------------------------------------------------------------|
D-|------------------------------------------------------------------------|
A-|---------2--------------------2---------4-------------------------------|
E-|---4-------------4-----------------------------4------2------4----------|


EnJoY!
cyberbassist