Louis Xiv - Its The Girl That Makes Him Sad Chords & Tabs

 

Its The Girl That Makes Him Sad Chords & Tabs

Louis Xiv Chords & Tabs

Version: 1 Type: Bass Tab

Its The Girl That Makes Him Sad Bass Tab

   
Ok, well I was pretty wierded out to find no bass tab to this song! It’s a great line. 
too. The notes should be accurate, you just gotta get the rhythm right.

This is my first tab, so enjoy! =)

Any comments or corrections, email me! thanks!

Chrissie


[Main riff]

G|------------------------------------|
D|------------------------------------|
A|------3---3----5---3----------------|
E|-3-5----5---5----5---33333----------|


Intro

[main riff] x2

"He wakes up early in the afternoon..."

G|-------------------------|
D|-50-50-50-50-50-50-50-50-|     x2
A|-------------------------|
E|-------------------------|

[main riff]

“Caus it was over before it could start...”

G|--------------------------------|
D|-/50-50-50-50-50-50-50-50-------|     x2
A|--------------------------------|
E|--------------------------------|

[main riff]

"And if you feel like crying late again"
[ Tab from: http://www.guitartabs.cc/tabs/l/louis_xiv/its_the_girl_that_makes_him_sad_btab.html ]
G|------------------------------------|
D|------------------------------------|
A|------------------------------------|
E|-2-2-2-2-2-2-2-2-3-3-3-3-3-3-3-3----|

G|------------------------------------------------------|
D|------------------------------------------------------|
A|-2-2-2-0-2-0---0-0-0-0-0-0----------------------------|
E|-----------------------------3-3-3-0-3-0--3-3-3-0-3-0-|

G|--------------------------------------------------|
D|----------------------------------/55555555555555-|
A|--------------------------------------------------|
E|-2-2-2-2-2-2-2-2-3-3-3-3-3-3-3-3------------------|

[main riff] x2

"He wakes up early in the afternoon..."

G|-------------------------|
D|-50-50-50-50-50-50-50-50-|     x2
A|-------------------------|
E|-------------------------|

[main riff]

“His mother left him...”

G|--------------------------------|
D|-/50-50-50-50-50-50-50-50-------|     x2
A|--------------------------------|
E|--------------------------------|

[main riff]

* break *

[main riff] x 2

Finish!