Louis Xiv - Finding Out True Love Is Blind Chords & Tabs

 

Finding Out True Love Is Blind Chords & Tabs

Louis Xiv Chords & Tabs

Version: 1 Type: Tab 0 ratings
1 star 2 stars 3 stars 4 stars 5 stars
comments

Finding Out True Love Is Blind Tab

I LOVE THIS SONG AND BAND I CANT BELIVE NO ONE HAS ENTERED A TAB!
e)--------------------------------------------------|
b)--------------------------------------------------|
g)--------------------------------------------------|
d)--------------------------------------------------| X4
a)--------------------------------------------------|
e)--5---3---8---2---10------------------------------|

[ Tab from: http://www.guitartabs.cc/tabs/l/louis_xiv/finding_out_true_love_is_blind_tab.html ]
e)----------------------------------------------------|
b)----------------------------------------------------|
g)----------------------------------------------------|
d)--------------------------5-5-5-5-5-5-5-------------|
a)-7---5---10---4---12------5-5-5-5-5-5-5-------------|
e)-5---3----8---2---10------7-7-7-7-7-7-7-------------|

e)-----------------------------------------------------|
b)-----------------------------------------------------|
g)-----------------------------------------------------|
d)-7-7-7-7--5-5-5-5--10-10-10-10--4-4-4-4--12-12-12-12-|  Continue to the end
a)-7-7-7-7--5-5-5-5--10-10-10-10--4-4-4-4--12-12-12-12-|
e)-5-5-5-5--3-3-3-3---8--8--8--8--2-2-2-2--10-10-10-10-|
Comments