Louis Xiv - Finding Out True Love Is Blind Chords & Tabs

 

Finding Out True Love Is Blind Chords & Tabs

Louis Xiv Chords & Tabs

Version: 1 Type: Bass Tab

Finding Out True Love Is Blind Bass Tab

Standard Tuning
Finding out true love is blind by Louis XIV


Intro/Verse/Bridge/outro
-----------------|
-------------0---|
-0-----3---------|
----3-----2------|
[ Tab from: http://www.guitartabs.cc/tabs/l/louis_xiv/finding_out_true_love_is_blind_btab.html ]
Break between first and second verse
---------------------|
---0-0-0-0-0-0-0-0-0-|
---------------------|
---------------------|


Chorus...

Nothing!  you get a nice lil break