Loudmouth - No Heros Chords & Tabs

 

No Heros Chords & Tabs

Loudmouth Chords & Tabs

Version: 1 Type: Tab 0 ratings
1 star 2 stars 3 stars 4 stars 5 stars
comments

No Heros Tab

Author/Artist: Loudmouth
Title: No Heros

*DROP D Tuning*

Intro/Verses:                    Added on in verses:
E-----------------------------|   |---|
B-----------------------------|   |---|
G-----------------------------|   |-6-|
D-5-5-3-5--5-3-5--5-3-5-5-5-3-|   |-6-|
A-5-5-3-5--5-3-5--5-3-5-5-5-3-|   |-4-|
D-5-5-3-5--5-3-5--5-3-5-5-5-3-|   |---|

"So you disappear...":                    
E-------------|  
B-------------|   
G-------------|  
D-8--3--8--15-|  
A-8--3--8--15-|  
D-8--3--8--15-|   
[ Tab from: http://www.guitartabs.cc/tabs/l/loudmouth/no_heros_tab.html ]
"I know you got a lot...":                    
E------------------------|  
B------------------------|   
G------------------------|  
D-8--3--11--5--13--8--11-|  
A-8--3--11--5--13--8--11-|  
D-8--3--11--5--13--8--11-|   

Under solos:                    
E-------|  
B-------|   
G-------|  
D-3-5\--|  
A-3-5\--| 
D-3-5\--| 

"Ahh... yea!.."                  
E-----------------------------|  
B-----------------------------|  
G-----------------------------|   
D-7-7-5-7--7-5-7--7-5-7-7-7-5-|  
A-7-7-5-7--7-5-7--7-5-7-7-7-5-|    
D-7-7-5-7--7-5-7--7-5-7-7-7-5-|   








Comments