Lostprophets - We Still Kill The Old Way Chords & Tabs

 

We Still Kill The Old Way Chords & Tabs

Lostprophets Chords & Tabs

Version: 3 Type: Tab 0 ratings
1 star 2 stars 3 stars 4 stars 5 stars
comments

We Still Kill The Old Way Tab

BAND: LOSTPROPHETS
SONG: WE STILL KILL THE OLD WAY
ALBUM: START SOMETHING
TUNING: DADGBE

(HEAVY DISTORTION)

               X3

e|-----------------------------------|----------------------------------------|
B|-----------------------------------|----------------------------------------|
G|-----------------------------------|----------------------------------------|
D|-----------------------------------|----------------------------------------|
A|-0-0-0---0---0-0---0---0-0-0-0-----|-0-0-0---0---0-0---0--------------------|
D|-0-0-0---0---0-0---0---0-0-0-0-----|-0-0-0---0---0-0---0--------------------|

               X4                              X4

e|-----------------------------------|-0-0-0---0---0-0---0---0-0-0-0----------|
B|-----------------------------------|-0-0-0---0---0-0---0---0-0-0-0----------|
G|-----------------------------------|-0-0-0---0---0-0---0---0-0-0-0----------|
D|-----------------------------------|-0-0-0---0---0-0---0---0-0-0-0----------|
A|-0-0-0---0---0-0---0---0-0-0-0-----|-0-0-0---0---0-0---0---0-0-0-0----------|
D|-0-0-0---0---0-0---0---0-0-0-0-----|-0-0-0---0---0-0---0---0-0-0-0----------|


e|-----------------------------------|----------------------------------------|
B|-----------------------------------|----------------------------------------|
G|-4-6-6-4-6-6-4-6-6-4-6-6-4-6-6-4--4/2-6-6-2-6-6-2-6-6-2-6-6-2-6-6-2---------|
D|-----------------------------------|----------------------------------------|
A|-----------------------------------|----------------------------------------|
D|-----------------------------------|----------------------------------------|

e|-----------------------------------|----------------------------------------|
B|-----------------------------------|----------------------------------------|
G|-0-4-4-0-4-4-0-4-4-0-4-4-0-4-4-0---|-2-6-6-2-6-6-2-6-6-2-6-6-2-6-6-4--------|
D|-----------------------------------|----------------------------------------|
A|-----------------------------------|----------------------------------------|
D|-----------------------------------|----------------------------------------|

e|-----------------------------------|----------------------------------------|
B|-----------------------------------|----------------------------------------|
G|-----------------------------------|----------------------------------------|
D|-------------------------2---------|----------------------------------------|
A|-3--------5------------------------|-0---------------2--------3-------------|
D|-----------------------------------|----------------------------------------|

e|-----------------------------------|---------------------------------5------|
B|-----------------------------------|---------------------------------3------|
G|-----------------------------------|---------------------------------2------|
D|-----------------------------------|----------------------0-----------------|
A|----------0--------------2---------|----------------0-----0-----------------|
D|-5---------------------------------|--3-------5-----------0-----------------|

(LIGHT DISTORTION)

e|-----------------------------------|----------------------------------------|
B|-----------------------------------|----------------------------------------|
G|-----------------------------------|----------------------------------------|
D|-----------------------------------|----------------------------------------|
A|-----------------------------------|---0-0---0-0---0------------------------|
D|-5-7-7-5-7-7-5-7-------------------|-3-----3-----3--------------------------|

X2 (2ND TIME THROUGH HEAVY DISTORTION)

e|-----------------------------------|----------------------------------------|
B|-----------------------------------|----------------------------------------|
G|-----------------------------------|----------------------------------------|
D|-----------------------------------|----------------------------------------|
A|-----------------------------------|---0-0---0-0---0------------------------|
D|-0-5-5-0-5-5-0-5-------------------|-3-----3-----3-----5-5-5---5-5-5--------|

                X4

e|-----------------------------------|------------------------------------------|
B|-----------------------------------|------------------------------------------|
G|------9------9------9------9-------|------------------------------------------|
D|--7-7----7-7----7-7----7-7---------|------------------------------------------|
A|-----------------------------------|------------------------------------------|
D|-----------------------------------|-7-7-7-7-7-7-7-7-7-7-7-7-7-7-7-7----------|
   PM-->  PM-->  PM-->  PM-->          PM---------------------------------------|

e|-----------------------------------|------------------------------------------|
B|-----------------------------------|------------------------------------------|
G|-----------------------------------|------------------------------------------|
D|-----------------------------------|------------------------------------------|
A|-----------------------------------|------------------------------------------|
D|-12-12-12-12-12-12-12-12-12-12-12--|-10-10-10-10-10-10-10-10-10-10-10-10-10---|
PM------------------------------------------------------------------------------|

e|-----------------------------------|------------------------------------------|
B|-----------------------------------|------------------------------------------|
G|-----------------------------------|------------------------------------------|
D|-----------------------------------|------------------------------------------|
A|-----------------------------------|------------------------------------------|
D|-10-10-10-10-10-10-10-10-10-10-10--|-12-12-12-12-12-12-12-12-12-12-12-12-12---|
PM------------------------------------------------------------------------------|

(HEAVY DISTORTION)

                x2

e|-----------------------------------|-0--------------------------------------|
B|-----------------------------------|-0--------------------------------------|
G|-----------------------------------|-4--------------------------------------|
D|-----------------------------------|-2--or-12-------------------------------|
A|-----------------------------------|-2-----12-------------------------------|
D|-5-7-7-5-7-7-5-7-7-5-7-7-5-7-7-5---|-2-----12-------------------------------|

e|-0---------------------------------|-0--------------------------------------|
B|-0---------------------------------|-0--------------------------------------|
G|-4----4----------------------------|-0----5---------------------------------|
D|-0-or-4----------------------------|-0-or-5---------------------------------|
A|-4----2----------------------------|-5----3---------------------------------|
D|-4---------------------------------|-5--------------------------------------|

e|-----------------------------------|----------------------------------------|
B|-----------------------------------|----------------------------------------|
G|-2---------------------------------|----------------------------------------|
D|-2-or-0----------------------------|-12-12-12-12-12-12-12-12-12-12-12-12-12-|
A|-0----0----------------------------|-12-12-12-12-12-12-12-12-12-12-12-12-12-|
D|------0----------------------------|-12-12-12-12-12-12-12-12-12-12-12-12-12-|


e|-----------------------------------|----------------------------------------|
B|-----------------------------------|----------------------------------------|
G|-4-4-4-4-4-4-4-4-4-4-4-4-4-4-4-4-4-|----------------------------------------|
D|-4-4-4-4-4-4-4-4-4-4-4-4-4-4-4-4-4-|-3-3-3-3-3-3-3-3-3-3-3-3-3-3-3-3-3-3-3--|
A|-2-2-2-2-2-2-2-2-2-2-2-2-2-2-2-2-2-|-3-3-3-3-3-3-3-3-3-3-3-3-3-3-3-3-3-3-3--|
D|-----------------------------------|-3-3-3-3-3-3-3-3-3-3-3-3-3-3-3-3-3-3-3--|

                x2

e|-5-5---5-5---5-5---5-5---5-5-5-----|    -0--|
B|-5-5---5-5---5-5---5-5---5-5-5-----|    -0--|
G|-2-2---2-2---2-2---2-2---2-2-2-----| or -0--|
D|-----------------------------------|    -2--|
A|-----------------------------------|    -2--|
D|--------------------------------------------|

e|-----------------------------------|----------------------------------------|
B|-----------------------------------|----------------------------------------|
G|-----------------------------------|----------------------------------------|
D|-----------------------------------|----------------------------------------|
A|-----------------------------------|---0-0---0-0---0------------------------|
D|-5-7-7-5-7-7-5-7-------------------|-3-----3-----3--------------------------|

											x2
[ Tab from: http://www.guitartabs.cc/tabs/l/lostprophets/we_still_kill_the_old_way_tab_ver_3.html ]
e|-----------------------------------|----------------------------------------|
B|-----------------------------------|----------------------------------------|
G|-----------------------------------|----------------------------------------|
D|-----------------------------------|----------------------------------------|
A|-----------------------------------|---0-0---0-0---0------------------------|
D|-0-5-5-0-5-5-0-5-------------------|-3-----3-----3-----5-5-5---5-5-5--------|

              X4

e|-----------------------------------|------------------------------------------|
B|-----------------------------------|------------------------------------------|
G|------9------9------9------9-------|------------------------------------------|
D|--7-7----7-7----7-7----7-7---------|------------------------------------------|
A|-----------------------------------|------------------------------------------|
D|-----------------------------------|-7-7-7-7-7-7-7-7-7-7-7-7-7-7-7-7----------|
   PM-->  PM-->  PM-->  PM-->          PM---------------------------------------|

e|-----------------------------------|------------------------------------------|
B|-----------------------------------|------------------------------------------|
G|-----------------------------------|------------------------------------------|
D|-----------------------------------|------------------------------------------|
A|-----------------------------------|------------------------------------------|
D|-12-12-12-12-12-12-12-12-12-12-12--|-10-10-10-10-10-10-10-10-10-10-10-10-10---|
PM------------------------------------------------------------------------------|

e|-----------------------------------|------------------------------------------|
B|-----------------------------------|------------------------------------------|
G|-----------------------------------|------------------------------------------|
D|-----------------------------------|------------------------------------------|
A|-----------------------------------|------------------------------------------|
D|-10-10-10-10-10-10-10-10-10-10-10--|-12-12-12-12-12-12-12-12-12-12-12-12-12---|
PM------------------------------------------------------------------------------|

                x2

e|-----------------------------------|-0--------------------------------------|
B|-----------------------------------|-0--------------------------------------|
G|-----------------------------------|-4--------------------------------------|
D|-----------------------------------|-2--or-12-------------------------------|
A|-----------------------------------|-2-----12-------------------------------|
D|-5-7-7-5-7-7-5-7-7-5-7-7-5-7-7-5---|-2-----12-------------------------------|

e|-0---------------------------------|-0--------------------------------------|
B|-0---------------------------------|-0--------------------------------------|
G|-4----4----------------------------|-0----5---------------------------------|
D|-0-or-4----------------------------|-0-or-5---------------------------------|
A|-4----2----------------------------|-5----3---------------------------------|
D|-4---------------------------------|-5--------------------------------------|

e|-----------------------------------|----------------------------------------|
B|-----------------------------------|----------------------------------------|
G|-2---------------------------------|----------------------------------------|
D|-2-or-0----------------------------|-12-12-12-12-12-12-12-12-12-12-12-12-12-|
A|-0----0----------------------------|-12-12-12-12-12-12-12-12-12-12-12-12-12-|
D|------0----------------------------|-12-12-12-12-12-12-12-12-12-12-12-12-12-|


e|-----------------------------------|----------------------------------------|
B|-----------------------------------|----------------------------------------|
G|-4-4-4-4-4-4-4-4-4-4-4-4-4-4-4-4-4-|----------------------------------------|
D|-4-4-4-4-4-4-4-4-4-4-4-4-4-4-4-4-4-|-3-3-3-3-3-3-3-3-3-3-3-3-3-3-3-3-3-3-3--|
A|-2-2-2-2-2-2-2-2-2-2-2-2-2-2-2-2-2-|-3-3-3-3-3-3-3-3-3-3-3-3-3-3-3-3-3-3-3--|
D|-----------------------------------|-3-3-3-3-3-3-3-3-3-3-3-3-3-3-3-3-3-3-3--|

                x2

e|-5-5---5-5---5-5---5-5---5-5-5-----|    -0--|
B|-5-5---5-5---5-5---5-5---5-5-5-----|    -0--|
G|-2-2---2-2---2-2---2-2---2-2-2-----|    -0--|
D|-----------------------------------| or -2--|
A|-----------------------------------|    -2--|
D|--------------------------------------------|

               X4

e|-----------------------------------|
B|-----------------------------------|
G|-----------------------------------|
D|-----------------------------------|
A|-0-0-0---0---0-0---0---0-0-0-0-----|
D|-0-0-0---0---0-0---0---0-0-0-0-----|

(CLEAN)

e|--12--12--12-----10--10--10--------|---------------------------14--14-------|
B|----12--12---------10--10----------|---12--12--12----------------15---15----|
G|-9-------------11------------------|-12--12--12----12-12-11-11--------------|  x2
D|-----------------------------------|----------------------------------------|
A|-----------------------------------|----------------------------------------|
D|-----------------------------------|----------------------------------------|

		x4

e|-12---12---12----------------------|-10----10----10---10----10----10--------|
B|---10---10---10--------------------|---12----12----12---10----10----10------|
G|-----9----9------------------------|-----12----12---------11----11----------|
D|-----------------------------------|----------------------------------------|
A|-----------------------------------|----------------------------------------|
D|-----------------------------------|----------------------------------------|

							x3

e|-12---12---12---12---12---12-------|-10----10----10-------------------------|
B|---10---10---10---10---10---10-----|---12----12----12-----------------------|
G|-----9----9---------9----9---------|-----12----12---------------------------|
D|-----------------------------------|----------------------------------------|
A|-----------------------------------|----------------------------------------|
D|-----------------------------------|----------------------------------------|

(HEAVY DISTORTION)

e|-----------------------------------|----------------------------------------|
B|-----------------------------------|----------------------------------------|
G|-----------------------------------|----------------------------------------|
D|-----------------------------------|----------------------------------------|
A|-----------------------------------|----------------------------------------|
D|-5-5-5-5-5-5-5-5-4-4-4-4-4-4-4-4-4-|-2-2-2-2-2-2-2-2-2-2-4-4-4-4-4-4-4-4-4--|


             (DONT PLAY)

e|-----------------------------------|-0--------------------------------------|
B|-----------------------------------|-0--------------------------------------|
G|-----------------------------------|-4--------------------------------------|
D|-----------------------------------|-2--or-12-------------------------------|
A|-----------------------------------|-2-----12-------------------------------|
D|-----------------------------------|-2-----12-------------------------------|

e|-0---------------------------------|-0--------------------------------------|
B|-0---------------------------------|-0--------------------------------------|
G|-4----4----------------------------|-0----5---------------------------------|
D|-0-or-4----------------------------|-0-or-5---------------------------------|
A|-4----2----------------------------|-5----3---------------------------------|
D|-4---------------------------------|-5--------------------------------------|

e|-----------------------------------|----------------------------------------|
B|-----------------------------------|----------------------------------------|
G|-2---------------------------------|----------------------------------------|
D|-2-or-0----------------------------|-12-12-12-12-12-12-12-12-12-12-12-12-12-|
A|-0----0----------------------------|-12-12-12-12-12-12-12-12-12-12-12-12-12-|
D|------0----------------------------|-12-12-12-12-12-12-12-12-12-12-12-12-12-|


e|-----------------------------------|----------------------------------------|
B|-----------------------------------|----------------------------------------|
G|-4-4-4-4-4-4-4-4-4-4-4-4-4-4-4-4-4-|----------------------------------------|
D|-4-4-4-4-4-4-4-4-4-4-4-4-4-4-4-4-4-|-3-3-3-3-3-3-3-3-3-3-3-3-3-3-3-3-3-3-3--|
A|-2-2-2-2-2-2-2-2-2-2-2-2-2-2-2-2-2-|-3-3-3-3-3-3-3-3-3-3-3-3-3-3-3-3-3-3-3--|
D|-----------------------------------|-3-3-3-3-3-3-3-3-3-3-3-3-3-3-3-3-3-3-3--|

                x3

e|-5-5---5-5---5-5---5-5---5-5-5-----|
B|-5-5---5-5---5-5---5-5---5-5-5-----|
G|-2-2---2-2---2-2---2-2---2-2-2-----|
D|-----------------------------------|
A|-----------------------------------|
D|-----------------------------------|
Comments