Lostprophets - We Still Kill The Old Way Chords & Tabs

 

We Still Kill The Old Way Chords & Tabs

Lostprophets Chords & Tabs

Version: 1 Type: Tab 0 ratings
1 star 2 stars 3 stars 4 stars 5 stars
comments

We Still Kill The Old Way Tab

Artist: Lost Prophets
Title: We Still Kill The Old Way
Album: Start Something
Tuning: Dropped D (DADGBe) Low to High
Tabber: a_guy_called_richard@hotmail.com

Why is there hardly any of Lost Prophets' new stuff being tabbed? 

Intro: 
|----------------------------|
|----------------------------|
|----------------------------| x4
|-0-0--0--0--0-0--0--0-0-0-0-|
|-0-0--0--0--0-0--0--0-0-0-0-|
|-0-0--0--0--0-0--0--0-0-0-0-|
PM. .        .       . . . 

Then play the intro but louder with the 2nd guitar playing
the top strings open a few times at the start of each riff.


Intro 2:
Rhythm: This bit looks pretty confusing but its ok.
All of these bits are played one after another straightaway.
Ive only put it like this because it won't fit on 1 page.
|---------------------------------|
|---------------------------------|
|---------------------------------|
|---------------------------------|
|-5-7-7-5-7-7-5-7-7-5-7-7-5-7-7-5-|
|-5-7-7-5-7-7-5-7-7-5-7-7-5-7-7-5-|

|---------------------------------|
|---------------------------------|
|---------------------------------|
|---------------------------------|
|-3-7-7-3-7-7-3-7-7-3-7-7-3-7-7-3-|
|-3-7-7-3-7-7-3-7-7-3-7-7-3-7-7-3-|

|---------------------------------|
|---------------------------------|
|---------------------------------|
|---------------------------------|
|-0-5-5-0-5-5-0-5-5-0-5-5-0-5-5-0-|
|-0-5-5-0-5-5-0-5-5-0-5-5-0-5-5-0-|

|---------------------------------|
|---------------------------------|
|---------------------------------|
|---------------------------------|
|-3-7-7-3-7-7-3-7-7-3-7-7-3-7-7-3-|
|-3-7-7-3-7-7-3-7-7-3-7-7-3-7-7-3-|

Lead: This is playted on the second time through with the rhythm.
|-----------------------------------------------------0-|
|-----------------------------------------------------0-|
|-----------------------------------------------------0-|
|------------------------------------------------0------|
|-3---3-5--7--0---0-2--3-------0--2-----------0--0------|
|-------------------------5----------3---3-5-----0------|


Verse:
|-----------------------------------------------------------------------|
|-----------------------------------------------------------------------|
|-----------------------------------------------------------------------|
|-----------------------------------------------------------------------|
|-----------------------------------------------------------------------|
|-5-7-7-5-7-7-5-7\--3-7-7-3-7-7-3-7\--0-5-5-0-5-5-0-5\--3-7-7-3-7-7-3-7\|

At the end of the first time through the verse riff, play this:
|----------------------------|
|----------------------------|
|----------------------------|
|----------------------------|
|----------------------------|
|-<5>-<5>-<5>----<5>-<5>-<5>-|

Then play the verse with heavy distortion


Bridge 1:                                          1st time   2nd time
|-------------------------------------------------|---------|---12--12|
|----10-----10-----10-----10-----10-----10-----10-|---10--10|---10--10|
|----9------9------9------9------9------9------9--|---9---9-|---9---9-|
|-7-7----7-7----7-7----7-7----7-7----7-7----7-7---|-7-------|-7-------|
|-------------------------------------------------|---------|---------|
|-------------------------------------------------|---------|---------|
PM. .    . .    . .    . .    . .    . .    . .     .         .

Bridge 2: On the second time through of this riff, keep playing 
the muted notes and dont play the end bit... if u get what i mean.
Oh yeah and slowly start to release the PM at the end. 
|-----------------------------------------------------------------|
|-----------------------------------------------------------10-10-|
|-----9-------9-------9-------9-------9-------9-------9-----9--9--| x2
|-7-7---7-7-7---7-7-7---7-7-7---7-7-7---7-7-7---7-7-7---7-7-------|
|-----------------------------------------------------------------|
|-----------------------------------------------------------------|
PM. . . . . . . . . . . . . . . . . . . . . . . . . . . . .

[ Tab from: http://www.guitartabs.cc/tabs/l/lostprophets/we_still_kill_the_old_way_tab.html ]
Pre-Chorus:
|-----------------------------------------------------------------|
|-----------------------------------------------------------------|
|-----------------------------------------------------------------|
|-----------------------------------------------------------------|
|-----------------------------------------------------------------|
|-5-7-7-5-7-7-5-7-7-5-7-7-5-7-7-5-5-7-7-5-7-7-5-7-7-5-7-7-5-7-7-5-|


Chorus:
Rhythm:
|----------------------------------|
|----------------------------------|
|----------------------------------|
|-7-------9-------10-------0-------|
|-7-------9-------10-------0-------|
|-7-------9-------10-------0-------|

|-------------------------|
|-------------------------|
|-------------------------|
|-7-------9-------3-------|
|-7-------9-------3-------|
|-7-------9-------3-------|

|----------------------------|
|----------------------------|
|----------------------------| 
|-0-0--0--0--0-0--0--0-0-0-0-|
|-0-0--0--0--0-0--0--0-0-0-0-|
|-0-0--0--0--0-0--0--0-0-0-0-|
PM. .        .       . . . 

Lead: Play this with the open PM bit at the end 
of the chorus.
|--------------------------------------|
|--------------------------------------|
|-14-14--14-14--14-14--14-14--14-14-14-|
|-x--x---x--x---x--x---x--x---x--x--x--|
|-12-12--12-12--12-12--12-12--12-12-12-|
|--------------------------------------|

Then play the verse.

Then the bridge.

Then this slightly different Pre-Chorus:
|----------------------------------------------------------------|
|----------------------------------------------------------------|
|-----------------------------------------9------9------9------9-|
|-----------------------------------------7------7------7------7-|
|-----------------------------------------7------7------7------7-|
|-5-7-7-5-7-7-5-7-7-5-7-7-5-7-7-5-5-7-7-5-7------7------7------7-|

Then play a chorus for the normal length.

Then this:
|----------------------------|
|----------------------------|
|----------------------------| x4
|-0-0--0--0--0-0--0--0-0-0-0-|
|-0-0--0--0--0-0--0--0-0-0-0-|
|-0-0--0--0--0-0--0--0-0-0-0-|
PM. .        .       . . . 


Interlude: Repeat this bit twice. Play this clean with a bit of delay
|-----12----12---------12-----12----------12-----12------|
|---10----10----10---10-----10-----10---10-----10-----10-|
|-9-----9-----9----11-----11-----11---12-----12-----12---|
|--------------------------------------------------------|
|--------------------------------------------------------|
|--------------------------------------------------------|

|--------------------------------------------------------|
|--------------------------------------------------------|
|-12-12-12---11-11-11---9-9------------------------------|
|--------------------------------------------------------|
|--------------------------------------------------------|
|--------------------------------------------------------|

Interlude Part 2: Play this with distortion
|-12-----12-----12---12-----12-----12---|
|---10-----10-----10---10-----10-----10-|
|------9------9-----------9------9------|
|---------------------------------------|
|---------------------------------------|
|---------------------------------------|

|-12----12----12---12----12----12---10----10----10---10----10----10--|
|---10----10----10---10----10----10---12----12----12---10----10----10|
|------9-----9----------9-----9---------12----12---------11----11----| x2
|--------------------------------------------------------------------| 
|--------------------------------------------------------------------|
|--------------------------------------------------------------------|

On the last time the other guitar plays this really quiet:
|-------------------------|
|-------------------------|
|-------------------------|
|-7-------9-------3-------|
|-7-------9-------3-------|
|-7-------9-------3-------|

End of interlude:
|-----------------------------------------------------------------|
|-----------------------------------------------------------------|
|-----------------------------------------------------------------|
|-5-5-5-5-5-5-5-5-4-4-4-4-4-4-4-4-2-2-2-2-2-2-2-2-4-4-4-4-4-4-4-4-|
|-5-5-5-5-5-5-5-5-4-4-4-4-4-4-4-4-2-2-2-2-2-2-2-2-4-4-4-4-4-4-4-4-|
|-5-5-5-5-5-5-5-5-4-4-4-4-4-4-4-4-2-2-2-2-2-2-2-2-4-4-4-4-4-4-4-4-|

Then play a chorus for the normal length and thats all.

Yet another great TAB from The Legend
Comments