Lostprophets - We Are Godzilla You Are Japan Chords & Tabs

 

We Are Godzilla You Are Japan Chords & Tabs

Lostprophets Chords & Tabs

Version: 1 Type: Tab 0 ratings
1 star 2 stars 3 stars 4 stars 5 stars
comments

We Are Godzilla You Are Japan Tab

this tab is by me johnny hehehehehe
we are godzilla you are japan
by lostprophets
standard tuning but drop d
 
                          1st end 2nd end 
 -------------------------|-----|-|------|-----------------------------
 -------------------------|-----|-|------|-----------------------------
 -------5b-----5b-----5b--|-----|-|------|-----------------------------
 ----3------4------6------|-1---|-|-1-1--|-----------------------------
 ----3------4------6------|-1x5-|-|-1-1x4|-----------------------------
 ----3------4------6------|-1---|-|-1-1--|-----------------------------
                         mute     mute

[ Tab from: http://www.guitartabs.cc/tabs/l/lostprophets/we_are_godzilla_you_are_japan_tab.html ]
 ----------------------------------------------------------------------
 ----------------------------------------------------------------------
 ----------------------------------------------------------------------
 ----3------6------1---------------------------------------------------
 ----3x4----6x4----1x4-------------------------------------------------
 ----3------6------1---------------------------------------------------
                                1st time   2nd time
 -------------------------------|--------||------|---------------------
 -------------------------------|--------||------|---------------------
 -------------------------------|--------||-4----|---------------------
 -------------------------------|--------||-4x4--|---------------------
 -------------------------------|--------||-2----|---------------------
 ----333333334344444444366666666|11111111||------|---------------------


 ----------------------------------------------------------------------
 ----------------------------------------------------------------------
 ----------------------------------------------------------------------
 --1-------------------------------------------------------------------
 --1-------------------------------------------------------------------
 --1-------------------------------------------------------------------
 mute a load of times.....

ending
 ---------------------------|------------------------------------------
 ---------------------------|------------------------------------------
 ---------------------------|------------------------------------------
 --333----444----666----111-|-333---444---666---888-----3--------------
 --333----444----666----111-|-333---444---666---888-----3--------------
 --333----444----666----111-|-333---444---666---888-----3--------------
mute loads and really fast at end


thats it its my first tab if its wrong e-mail me at guitarist_prs@hotmail.com
hope u enjoy playing this one kiddys cus lostprophets new album is gonna be great
check it out its called start something and is out on the 2nd of feb this is one
of the 13 tracks on it.
Comments