Lostprophets - We Are Godzilla You Are Japan Chords & Tabs

 

We Are Godzilla You Are Japan Chords & Tabs

Lostprophets Chords & Tabs

Version: 1 Type: Bass Tab 0 ratings
1 star 2 stars 3 stars 4 stars 5 stars
comments

We Are Godzilla You Are Japan Bass Tab

   
Band- Lostprophets
Song- We Are Godzilla You Are Japan

INTRO

G|----------|
D|----------|
A|----------|
D|00-0-00

G|-----------------|
D|-----------------|
A|-----------------|
D|00-00-00-00------|

G|--------------------|
D|--------------------|
A|--------------------|
D|2-23-35-500000------|

G|-----------------------|
D|-----------------------|
A|-----------------------|
D|5-2~-------------------|

VERSE
[ Tab from: http://www.guitartabs.cc/tabs/l/lostprophets/we_are_godzilla_you_are_japan_btab.html ]
G|------------------------------|
D|------------------------------|
A|------------------------------|
D|2-0-2--------55-55-00-00------|
(Sometimes there are slides up to a note like this)
G|------------------------------|
D|------------------------------|
A|------------------------------|
D|2-0-2/14\------55-55-00-00---|
POST CHORUS

G|-------------------------------------------------|
D|-------------------------------------------------|
A|-------------------------------------------------|
D|22222222333333335555555500000000

BUILD UP

G|--------------------------------------|
D|--------------------------------------|
A|--------------------3-3-3-3-----------|
D|2222223333333-------------000---------|

CHORUS

G|--------------------|
D|--------------------|
A|--------------------|
D|2-23-35-500000------|
Comments