Lostprophets - Wake Up Make A Move Chords & Tabs

 

Wake Up Make A Move Chords & Tabs

Lostprophets Chords & Tabs

Version: 3 Type: Tab 0 ratings
1 star 2 stars 3 stars 4 stars 5 stars
comments

Wake Up Make A Move Tab

Lostprophets - Make A Move/ Wake Up (Make A Move) 
Tuning: CGCFAD
Tabbed by: Will Sharp
Email: chimaira_tool@hotmail.com

Ok, here is the tab 4 make a move.  Trust me this is gd as it has the correct
notes an everything, mostly being tabbed by watchin a live vid of it, noticing
Lee has insane chord formations due to streching.  Other tabbers never got this.
Feel free to email me for anything.

Also, if u like this, i got a 100% correct version of "fake$oundofprogre$$ Live"
and "andshetoldmetoleave Live" - both are like 100% correct i shit you not.  Only
problem is that you have to search for them on mx, cos for some strange reason they
arent in the band section.


PM . = palm mute that/those notes
/ = slide up
\ = slide down
?b? = bend string on that fret to make sound of ? fret above.


INTRO:
Guitar 1: (you want a phase/chorus effect on eg. "Dimension" on Line 6 MM4, plus
	   single coils ie neck and middle 'cos a soapbar is actually used)

There are different variations here - the 1st one is the correct 1 but the 2nd
can be played to lead into the up an down riff played fast when bands kicks in.

		     x16		  x8, then go into this riff for x8
D|---------------------|--------------------------------------------------|
A|-----13------13------|-----13----13------|--------13----------13--------|
F|-14------14------14v-|--------14----14v--|-----14----14----14----14-----|
C|---12--12--12--12----|--12---------------|--12----------12----------12~-|
G|---------------------|-------------------|------------------------------|
C|---------------------|--------------------------------------------------|

When Guitar 2 ends on the ringing open strings, Guitar 1 could (optional)
play the 14th fret on F string again to end (using an FX loop would do this,
meaning that they could go straight into the verse more easily) or could go
straight into the verse.

After guitar 1's 8 repeats, Guitar 2 comes in with this:

Guitar 2:
D|------------------------------------------------------------------------|
A|------------------------------------------------------------------------|
F|------------------------------------------------------------------------|
C|--0-0-0-0-0-0-0-0-0-0-0--8-8-8-8-8-8-8-8-8-8-8--3-3-3-3-3-3-3-3-3-3-3-3-|
G|--0-0-0-0-0-0-0-0-0-0-0--8-8-8-8-8-8-8-8-8-8-8--3-3-3-3-3-3-3-3-3-3-3-3-|
C|--0-0-0-0-0-0-0-0-0-0-0--8-8-8-8-8-8-8-8-8-8-8--3-3-3-3-3-3-3-3-3-3-3-3-|

			      x2, on 2nd repeat, end riff on this:
D|-----------------------------|------------------------------------------|
A|-----------------------------|------------------------------------------|
F|-----------------------------|------------------------------------------|
C|-3-3-3-3-3-3-3-3-3-3-3--5-5--|--0~--------------------------------------|
G|-3-3-3-3-3-3-3-3-3-3-3--5-5--|--0~--------------------------------------|
C|-3-3-3-3-3-3-3-3-3-3-3--5-5--|--0~--------------------------------------|


VERSE:
Both Guitars: (use some kind of slow volume swell here - kinda like a panner but 
	       u dont want the sound to fade from in to out but from out to in)

NOTE: I find that the "Bias Tremelo" (MM4 users) on a very low speed, max depth,
      tweak on 3, tweez on 2 an a max mix works well.

These stretches are quite big so u either have ur guitar high up or position
it almost vertical.  Guitar 2 doesnt actually play the high notes, so they only
play the low bass notes.

									 x2
D|------------------------------------------------------------------------|
A|---------8~-------------------------------------------------------------|
F|--7~-----0~-----12~----12~----------------------------------------------|
C|--0~-----5~-----10~----12~----------------------------------------------|
G|--5~-----3~-----7~-----10~----------------------------------------------|
C|--0~-----3~-----7~-----10~----------------------------------------------|


PRE-CHORUS:
Both Guitars								 x2
D|------------------------------------------------------------------------|
A|----------------8--8--8~------------------------------------------------|
F|-7-7-7-7--7~----x--x--x----12-12-12-12--12~---12--12--12~---------------|
C|-0-0-0-0--0~----5--5--5~---10-10-10-10--10~---12--12--12~---------------|
G|-5-5-5-5--5~----3--3--3~---7--7--7--7---7~----10--10--10~---------------|
C|-0-0-0-0--0~----3--3--3~---7--7--7--7---7~----10--10--10~---------------|

Guitar 1:
D|------------------------------------------------------------------------|
A|------13------13--------------------------------------------------------|
F|--14------14------14v---------------------------------------------------|
C|----12--12--12--12------------------------------------------------------|
G|------------------------------------------------------------------------|
C|------------------------------------------------------------------------|

[ Tab from: http://www.guitartabs.cc/tabs/l/lostprophets/wake_up_make_a_move_tab_ver_3.html ]
CHORUS:
Both Guitars
D|------------------------------------------------------------------------|
A|------------------------------------------------------------------------|
F|------------------------------------------------------------------------|
C|--0-0-0-0-0-0-0-0-0-0-0--8-8-8-8-8-8-8-8-8-8-8--3-3-3-3-3-3-3-3-3-3-3-3-|
G|--0-0-0-0-0-0-0-0-0-0-0--8-8-8-8-8-8-8-8-8-8-8--3-3-3-3-3-3-3-3-3-3-3-3-|
C|--0-0-0-0-0-0-0-0-0-0-0--8-8-8-8-8-8-8-8-8-8-8--3-3-3-3-3-3-3-3-3-3-3-3-|

			      x2, on 2nd repeat, end riff on this:
D|-----------------------------|------------------------------------------|
A|-----------------------------|------------------------------------------|
F|-----------------------------|------------------------------------------|
C|-3-3-3-3-3-3-3-3-3-3-3--5-5--|--0~--------------------------------------|
G|-3-3-3-3-3-3-3-3-3-3-3--5-5--|--0~--------------------------------------|
C|-3-3-3-3-3-3-3-3-3-3-3--5-5--|--0~--------------------------------------|


Repeat verse, pre-chorus again.

CHORUS 2:
Guitar 2:
D|------------------------------------------------------------------------|
A|------------------------------------------------------------------------|
F|------------------------------------------------------------------------|
C|--0-0-0-0-0-0-0-0-0-0-0--8-8-8-8-8-8-8-8-8-8-8--3-3-3-3-3-3-3-3-3-3-3-3-|
G|--0-0-0-0-0-0-0-0-0-0-0--8-8-8-8-8-8-8-8-8-8-8--3-3-3-3-3-3-3-3-3-3-3-3-|
C|--0-0-0-0-0-0-0-0-0-0-0--8-8-8-8-8-8-8-8-8-8-8--3-3-3-3-3-3-3-3-3-3-3-3-|

									 x4
D|------------------------------------------------------------------------|
A|------------------------------------------------------------------------|
F|------------------------------------------------------------------------|
C|-3-3-3-3-3-3-3-3-3-3-3--5-5---------------------------------------------|
G|-3-3-3-3-3-3-3-3-3-3-3--5-5---------------------------------------------|
C|-3-3-3-3-3-3-3-3-3-3-3--5-5---------------------------------------------|

Guitar 1 comes in with something like this on 2nd repeat of chorus:
									 x4
D|------------------------------------------------------------------------|
A|-----13------13---------------------------------------------------------|
F|-14------14------14b15r14-----------------------------------------------|
C|---12--12--12--12-------------------------------------------------------|
G|------------------------------------------------------------------------|
C|------------------------------------------------------------------------|


BRIDGE:
Both Guitars: (Distortion)

	    x4
D|-----------|-------------------------------------------------------------|
A|-----------|-------------------------------------------------------------|
F|-----------|-------------------------------------------------------------|
C|-0-0--0-0--|---0-0-8-0-8-8---0-0-8-0-8-10---0-0-8-0-8-8---0-0-8-0~-------|
G|-0-0--0-0--|---0-0-8-0-8-8---0-0-8-0-8-10---0-0-8-0-8-8---0-0-8-0~-------|
C|-0-0--0-0--|---0-0-8-0-8-8---0-0-8-0-8-10---0-0-8-0-8-8---0-0-8-0~-------|
PM . .  . .

Guitar 1 then plays something like this: (some kind of wah used)

This also could be octaves with the G string (ie 2 frets back) as it sounds as
more than one string is used. Either way is tremelo picked.

Tremelo pick the note an slowly bend it higher, then slide to the nxt correct note
whilest keeping the bend going.

D|------------------------------------------------------------------------|
A|------------------------------------------------------------------------|
F|-12b14----/16b17/17---17b18/18---18b19/19---19b21r19\-------------------|
C|------------------------------------------------------------------------|
G|(slowly)--(slide during bend, repeat for each one)----------------------|
C|------------------------------------------------------------------------|

Guitar 2:
D|------------------------------------------------------------------------|
A|------------------------------------------------------------------------|
F|------------------------------------------------------------------------|
C|-0-0-8-0-8-8---0-0-8-0-8-10---0-0-8-0-8-8---0-0-8-0-8-10-0--10--0--8--0~|
G|-0-0-8-0-8-8---0-0-8-0-8-10---0-0-8-0-8-8---0-0-8-0-8-10-0--10--0--8--0~|
C|-0-0-8-0-8-8---0-0-8-0-8-10---0-0-8-0-8-8---0-0-8-0-8-10-0--10--0--8--0~|

Guitar 1: (uses some kind of volume swell here) (notes in brackets = optional) 
D|-(3~)------x------------------------------------------------------------|
A|-(3~)------x------------------------------------------------------------|
F|--7~-------12~-----12~--------------------------------------------------|
C|--5~-------10~-----12~--------------------------------------------------|
G|--3~-------7~------10~--------------------------------------------------|
C|--3~-------7~------10~--------------------------------------------------|

Repeat chorus 2 again.


Both Guitars end on these: (brackets were played live)
D|---10~-----------10~-----------------5~--(5~)---------------------------|
A|---10~-----------10~-----------------5~------(5~)-----------------------|
F|---10~-----------10~-----------------5~----------(5~)-------------------|
C|---8~------------8~------------------3~--------------(3~)---------------|
G|---8~------------8~------------------3~------------------(3~)-----------|
C|---8~------------8~------------------3~----------------------(3~)-------|



Thats it, ive played around with many variations of every chord/riff an this is was
matches the best, im 100% sure about the verse/pre-chorus chords, remember that they
are played slowly/not strummed fast.  Also the Guitar 1 overlay of Chorus 2 sounds
like a keyboard bit from Jamie but live it is Lee who plays it.

Probs/comments/questions email me.

Please rate this to get an idea of ppls opinions, feedback is always gd.
Comments