Lostprophets - Wake Up Make A Move Chords & Tabs

 

Wake Up Make A Move Chords & Tabs

Lostprophets Chords & Tabs

Version: 1 Type: Tab 0 ratings
1 star 2 stars 3 stars 4 stars 5 stars
comments

Wake Up Make A Move Tab

Band - Lost Prophets
Song - Wake up (Make a Move)
Album - Start Something

Tuning - Drop D

Intro - Part 1
e:---------------:
b:-8-11-8-11-8^--:
g:---------------:        Guitar 1 does this while violins play intro riff
d:---------------:
a:---------------:
D:---------------:

Intro - Part 2
Both Guitars           Work out the rythm yourself

e:----------------------------------------------:
b:----------------------------------------------:
g:-----5----------------------------------------: Repeat as many times needed
d:-10/-5--x8--6------1-1-1-1-1-1-1-1-1-1-1-1/3--:
a:-10/-3------6--x8--1-1-1-1-1-1-1-1-1-1-1-1/3--:
D:-10/--------6------1-1-1-1-1-1-1-1-1-1-1-1/3--:

Verse - Both Guitars

"Are we lost or do we know..."

e:-----------------------------:
b:-----------------------------:  Repeat as many times needed
g:-5---------------------------:  
d:-5--x6--1------5------8------:  Work out the rythm yourself
a:-3------1--x6--5--x6--8--x6--:
D:--------1------5------8------:

Pre-Chorus - Both Guitars

"Cause everyday where getting older..."
[ Tab from: http://www.guitartabs.cc/tabs/l/lostprophets/wake_up_make_a_move_tab.html ]
e:-------------------------------------------------:
b:-------------------------------------------------:
g:-5-5-5-5--5~-------------------------------------:
d:-5-5-5-5--5~-1-1-1-1--1~-5-5-5-5--5~-8-8-8-8--8~-:
a:-3-3-3-3--3~-1-1-1-1--1~-5-5-5-5--5~-8-8-8-8--8~-:
D:-------------1-1-1-1--1~-5-5-5-5--5~-8-8-8-8--8~-:

Pre-Chorus - Guitar 2

e:------------------:
b:-8-11-8-11-8^-----:
g:------------------:
d:--------------10/-:
a:--------------10/-:
D:--------------10/-:

Chorus - Both Guitars

"Wake Up, Wake Up, Wake Up..."
e:------------------------------------------:
b:------------------------------------------:
g:-5----------------------------------------: 
d:-5--x8--6------1-1-1-1-1-1-1-1-1-1-1-1/3--:    x 2
a:-3------6--x8--1-1-1-1-1-1-1-1-1-1-1-1/3--:
D:--------6------1-1-1-1-1-1-1-1-1-1-1-1/3--:

Bridge - Both Guitars
                          "Its not enough..."
e:--------------         ------------------
b:--------------         ------------------
g:-5-5-5-5------         --5-5-------------
d:-5-5-5-5--x4--   then  --5-5-6-3-8--x 4--
a:-3-3-3-3------         --3-3-6-3-8-------
D:--------------         ------6-3-8-------

Sort of Solo

e:------------13^^^^^--------:                   e:---------------:
b:-1///13^-------------------:                   b:---------------:
g:---------------------------:   Break           g:-5---------5~~-:
d:---------------------------:                   d:-5-6-8-6-8-5~~-:
a:---------------------------:                   a:-3-6-8-6-8-3~~-:
D:---------------------------:                   D:---6-8-6-8-----:

Repeat Chorus till the end

Post Corrections at Doms_BeerCo@Hotmail.com
Comments