Lostprophets - To Hell We Ride Chords & Tabs

 

To Hell We Ride Chords & Tabs

Lostprophets Chords & Tabs

Version: 2 Type: Tab 0 ratings
1 star 2 stars 3 stars 4 stars 5 stars
comments

To Hell We Ride Tab

   
Tabber:Haley
Album:Start Something
Song: To hell we ride

Intro
Guitar 1:
E|-----12-----12-----12-----12------12-------12-------12---|
B|----9--9---9--9---9--9---9--9---10--10---10--10---10--10-|
G|--11-----11-----11-----11-----11-------11-------11-------|
D|---------------------------------------------------------|
A|---------------------------------------------------------|
D|---------------------------------------------------------|

E|-----12--------------------------------------------------|
B|---10--10------------------------------------------------|
G|-11------------------------------------------------------|
D|---------------------------------------------------------|
A|---------------------------------------------------------|
D|---------------------------------------------------------|

Pre-Chorus (Both Guitars)                                 x4
E|---------------------------------------------------------|
B|---------------------------------------------------------|
G|---------------------------------------------------------|
D|-2-2-2h4-----2-2-2-2h4-----------------------------------|
A|-2-2-2h4-----2-2-2-2h4-----------------------------------|
D|-2-2-2h4-----2-2-2-2h4-----------------------------------|

End With (let each one ring)
E|---------------------------------------------------------|
B|---------------------------------------------------------|
G|---------------------------------------------------------|
D|-0-----------------2-------------------------------------|
A|-0-----------------2-------------------------------------|
D|-0-----------------2-------------------------------------|

Verse:
Guitar 1: This lasts the 2 repeats of Guitar 2's part
Has some kinda sustain with a wah on it.
E|---------------------------------------------------------|
B|---------------------------------------------------------|
G|--------------------------------9------11------14------13|
D|-7-----9-----12-----14-----16----------------------------|
A|---------------------------------------------------------|
D|---------------------------------------------------------|

Guitar 2: Some distortion w/ Heavy Palm Muting 		  x2
E|---------------------------------------------------------|
B|---------------------------------------------------------|
G|---------------------------------------------------------|
D|-2-2-2-2--2-2-2-2--2-2-2-2--4-4-4-4--4-4-4-4--4-4-4-4----|
A|-2-2-2-2--2-2-2-2--2-2-2-2--4-4-4-4--4-4-4-4--4-4-4-4----|
D|-2-2-2-2--2-2-2-2--2-2-2-2--4-4-4-4--4-4-4-4--4-4-4-4----|

E|---------------------------------------------------------|
B|---------------------------------------------------------|
G|---------------------------------------------------------|
D|-0-0-0-0--0-0-0-0--0-0-0-0--2-2-2-2--2-2-2-2--2-2-2-2----|
A|-0-0-0-0--0-0-0-0--0-0-0-0--2-2-2-2--2-2-2-2--2-2-2-2----|
D|-0-0-0-0--0-0-0-0--0-0-0-0--2-2-2-2--2-2-2-2--2-2-2-2----|


Verse Overlay
Guitar 2:No Palm Muting (except where marked)
E|---------------------------------------------------------|
B|---------------------------------------------------------|
G|---------------------------------------------------------|
D|-4-4-4-4-4--0-0-0-0-0--7-7-7-7-7--2-2-2-2-2--4-4-4-4-4--0|
A|-4-4-4-4-4--0-0-0-0-0--7-7-7-7-7--2-2-2-2-2--4-4-4-4-4--0|
D|-4-4-4-4-4--0-0-0-0-0--7-7-7-7-7--2-2-2-2-2--4-4-4-4-4--0|

E|---------------------------------------------------------|
B|---------------------------------------------------------|
G|---------------------------------------------------------|
D|-0-0-0-0--7-7-7-7-7--2-2-2-2-2-2--4-4-4-4-4--0-0-0-0-0--7|
A|-0-0-0-0--7-7-7-7-7--2-2-2-2-2-2--4-4-4-4-4--0-0-0-0-0--7|
D|-0-0-0-0--7-7-7-7-7--2-2-2-2-2-2--4-4-4-4-4--0-0-0-0-0--7|
                        | PM      |
E|---------------------------------------------------------|
B|---------------------------------------------------------|
G|---------------------------------------------------------|
D|-7-7-7-7--2-2-2-2-2--4-4-4-4-4--0-0-0-0-0--7-7-7-7-7--2-2|
A|-7-7-7-7--2-2-2-2-2--4-4-4-4-4--0-0-0-0-0--7-7-7-7-7--2-2|
D|-7-7-7-7--2-2-2-2-2--4-4-4-4-4--0-0-0-0-0--7-7-7-7-7--2-2|

E|---------------------------------------------------------|
B|---------------------------------------------------------|
G|---------------------------------------------------------|
D|-2-2-2~--------------------------------------------------|
A|-2-2-2~--------------------------------------------------|
D|-2-2-2~--------------------------------------------------|
      | Let Ring |
Guitar 1:
chorus/delay + distortion (slight)
E|---------------------------------------------------------|
B|---------------------------------------------------------|
G|-9/11-11\9----------------9/11-11\9----------------9/11--|
D|------------12-11/12--11-------------12-11/12--11--------|
A|---------------------------------------------------------|
D|---------------------------------------------------------|

E|---------------------------------------------------------|
B|---------------------------------------------------------|
G|11\9-----------------------------------------------------|
D|-----12-11-12--11h12-12-12-14-12-12--11h12-12-12-14-12-12|
A|---------------------------------------------------------|
D|---------------------------------------------------------|

E|---------------------------------------------------------|
B|---------------------------------------------------------|
G|----9/11-11\9---------------9/11-11\9--------------------|
D|p11------------12-11/12--11------------12-11-12--11h12-12|
A|---------------------------------------------------------|
D|---------------------------------------------------------|

E|---------------------------------------------------------|
B|---------------------------------------------------------|
G|---------------------------------------------------------|
D|-14-12-12--11h12-12-12-14-12-12p11~----------------------|
A|---------------------------------------------------------|
D|---------------------------------------------------------|

Then do pre-chorus ("Ride, Ride, Ride, now its time to...")
again and add this on the end:
[ Tab from: http://www.guitartabs.cc/tabs/l/lostprophets/to_hell_we_ride_tab_ver_2.html ]
Both Guitars: ("Everything seems tempting...")
E|---------------------------------------------------------|
B|---------------------------------------------------------|
G|---------------------------------------------------------|
D|-0-0-0-0-0-0-0-0--2-2-2-2-2-2-2-2--4-4-4-4-4-4-4-4--7-7-7|
A|-0-0-0-0-0-0-0-0--2-2-2-2-2-2-2-2--4-4-4-4-4-4-4-4--7-7-7|
D|-0-0-0-0-0-0-0-0--2-2-2-2-2-2-2-2--4-4-4-4-4-4-4-4--7-7-7|

E|---------------------------------------------------------|
B|---------------------------------------------------------|
G|---------------------------------------------------------|
D|-7-7-7-7-7--0-0-0-0-0-0-0-0--2-2-2-2-2-2-2-2--2-2-2h4----|
A|-7-7-7-7-7--0-0-0-0-0-0-0-0--2-2-2-2-2-2-2-2--2-2-2h4----|
D|-7-7-7-7-7--0-0-0-0-0-0-0-0--2-2-2-2-2-2-2-2--2-2-2h4----|

E|---------------------------------------------------------|
B|---------------------------------------------------------|
G|---------------------------------------------------------|
D|-2-2-2-2h4--2-2-2-2h4--2-2-2-2h4-------------------------|
A|-2-2-2-2h4--2-2-2-2h4--2-2-2-2h4-------------------------|
D|-2-2-2-2h4--2-2-2-2h4--2-2-2-2h4-------------------------|

Do verse, verse overlay, pre-chorus and this bit above again
(in that order)then this is played by Guitar 1:

Guitar 1:
E|------12-----12-----12-------12-------12-----12-----12---|
B|---10------9-------9-------10--------9--9---9--9---9--9--|
G|-----------------11------11--------11-----11-----11------|
D|---------------------------------------------------------|
A|---------------------------------------------------------|
D|---------------------------------------------------------|

E|----12------12-------12-------12-------12-------14-------|
B|---9--9---10--10---10--10---10--10---10--10---10--10-----|
G|-11-----11-------11-------11-------11-------11-----------|
D|---------------------------------------------------------|
A|---------------------------------------------------------|
D|---------------------------------------------------------|

E|-----14-------14-------14-------14-------14-------14-----|
B|---10--10---10--10---10--10---10--10---10--10---10--10---|
G|-11-------11-------11-------13-------13-------13---------|
D|---------------------------------------------------------|
A|---------------------------------------------------------|
D|---------------------------------------------------------|

E|-----14------12-----12-----12-----12------12-------12----|
B|---10--10---9--9---9--9---9--9---9--9---10--10---10--10--|
G|-13-------11-----11-----11-----11-----11-------11--------|
D|---------------------------------------------------------|
A|---------------------------------------------------------|
D|---------------------------------------------------------|

E|-----12-------12-----------------------------------------|
B|---10--10---10--10---------------------------------------|
G|-11-------11---------------------------------------------|
D|---------------------------------------------------------|
A|---------------------------------------------------------|
D|---------------------------------------------------------|

Guitar 1: with some sort of FX
E|-12-12-12-12-12-12-12-12---12-12-12-12-12-12-12-12---12--|
B|-9--9--9--9--9--9--9--9----9--9--9--9--9--9--9--9----10--|
G|-11-11-11-11-11-11-11-11---11-11-11-11-11-11-11-11---11--|
D|---------------------------------------------------------|
A|---------------------------------------------------------|
D|---------------------------------------------------------|

E|-12-12-12-12-12-12-12---12-12-12-12-12-12-12-12----------|
B|-10-10-10-10-10-10-10---10-10-10-10-10-10-10-10----------|
G|-11-11-11-11-11-11-11---11-11-11-11-11-11-11-11----------|
D|---------------------------------------------------------|
A|---------------------------------------------------------|
D|---------------------------------------------------------|

Guitar 2: slight distortion
E|---------------------------------------------------------|
B|---------------------------------------------------------|
G|---------------------------------------------------------|
D|-2-2-2-2-2-2-2-2---2-2-2-2-2-2-2-2---4-4-4-4-4-4-4-4-----|
A|-2-2-2-2-2-2-2-2---2-2-2-2-2-2-2-2---4-4-4-4-4-4-4-4-----|
D|-2-2-2-2-2-2-2-2---2-2-2-2-2-2-2-2---4-4-4-4-4-4-4-4-----|
                    
E|---------------------------------------------------------|
B|---------------------------------------------------------|
G|---------------------------------------------------------|
D|-4-4-4-4-4-4-4-4-----------------------------------------|
A|-4-4-4-4-4-4-4-4-----------------------------------------|
D|-4-4-4-4-4-4-4-4-----------------------------------------|


Both Guitars:
(with FX off, distortion on + let each of these ring)
E|---------------------------------------------------------|
B|---------------------------------------------------------|
G|---------------------------------------------------------|
D|-0--------0-2-------2-4-------4-7-------7-0-------0-2----|
A|-0--------0-2-------2-4-------4-7-------7-0-------0-2----|
D|-0--------0-2-------2-4-------4-7-------7-0-------0-2----|
                         

E|---------------------------------------------------------|
B|---------------------------------------------------------|
G|---------------------------------------------------------|
D|-4-4-4-4-4-4-4-4---2/4-4-4-4-4-4-4-4---2/4-4-4-4-4-4-4-4-|
A|-4-4-4-4-4-4-4-4---2/4-4-4-4-4-4-4-4---2/4-4-4-4-4-4-4-4-|
D|-4-4-4-4-4-4-4-4---2/4-4-4-4-4-4-4-4---2/4-4-4-4-4-4-4-4-|
 			  |(Distorted)  LIGHTLY PALM MUTE

E|---------------------------------------------------------|
B|---------------------------------------------------------|
G|---------------------------------------------------------|
D|2/4-4-4-4-4-4-4-4---2/4-4-4-4-4-4-4-4---2/4-4-4-4-4-4-4-4|
A|2/4-4-4-4-4-4-4-4---2/4-4-4-4-4-4-4-4---2/4-4-4-4-4-4-4-4|
D|2/4-4-4-4-4-4-4-4---2/4-4-4-4-4-4-4-4---2/4-4-4-4-4-4-4-4|
                   LIGHTY PALM MUTE			   |

Guitar 2 carries on the palm muted riff while Guitar 1 plays:
(with same effect as before - sustain an wah)
E|-12-12-12-12-12-12-12-12/12-12-12-12-12-12-12-12/14-14-14|
B|-9--9--9--9--9--9--9--9-/10-10-10-10-10-10-10-10/12-12-12|
G|-11-11-11-11-11-11-11-11/11-11-11-11-11-11-11-11/13-13-13|
D|---------------------------------------------------------|
A|---------------------------------------------------------|
D|---------------------------------------------------------|

E|-14-14-14-14-14/14-14-14-14-14-14-14-14------------------|
B|-12-12-12-12-12/12-12-12-12-12-12-12-12------------------|
G|-13-13-13-13-13/14-14-14-14-14-14-14-14------------------|
D|------------------------------------------4-4-4-4--------|
A|------------------------------------------4-4-4-4--------|
D|------------------------------------------4-4-4-4--------|
			          |Both end this Palm Muted|
Comments