Lostprophets - To Hell We Ride Chords & Tabs

 

To Hell We Ride Chords & Tabs

Lostprophets Chords & Tabs

Version: 1 Type: Bass Tab 0 ratings
1 star 2 stars 3 stars 4 stars 5 stars
comments

To Hell We Ride Bass Tab

   
Band- Lostprophets
Song- To Hell We Ride

Gtr I (D A D G) - 'Stu Richardson'

 Intro
  Moderately Q=106
 4/4
  Gtr I
  W          W
|----------|------|
|----------|------|
|----------|------|
|----------|------|


  E S S  S   S S S +S  S S S  S   S S S
|---------------------------------------|
|---------------------------------------|
|---------------------------------------|
|-2-2-4-(2)\-4-4-2-(2)-2-2-4-(2)\-4-4-2-|


  +S  S S S  S   S S S +S  S S S +S  S S S
|------------------------------------------|
|------------------------------------------|
|------------------------------------------|
|-(2)-2-2-4-(2)\-4-4-2-(2)-2-4-2-(2)-2-4-2-|


  S S S S  S   S S S +S  S S S  S   S S S
|-----------------------------------------|
|-----------------------------------------|
|-----------------------------------------|
|-2-2-2-4-(2)\-4-4-2-(2)-2-2-4-(2)\-4-4-2-|


  +S  S S S  S   S S S +S  S S S +S  S E
|----------------------------------------|
|----------------------------------------|
|----------------------------------------|
|-(2)-2-2-4-(2)\-4-4-2-(2)-2-4-2-(2)-2-4-|


   E  S  S  E  S  S  E  S  S  E  S  S   E S S E S S E S S E S S
|-------------------------------------|-------------------------||
|-------------------------------------|-------------------------||
|-------------------------------------|-------------------------||
|-12-12-12-12-12-12-12-12-12-12-12-12s|=2-2-2-2-2-2-2-2-2-2-2-2-||


   Verse
    S S S S S S S S S S S S S S S S  7x S S S S S S S S S S S S S S S S
||-----------------------------------||---------------------------------||
||o---------------------------------o||---------------------------------||
||o---------------------------------o||---------------------------------||
||--x-x-2h4-2h4-x-x-2h4-2h4-x-x-2h4--||-4-4-4-4-2-2-2-2-2-2-2-2-4-4-4-4-||


   Pre-Chorus
    $
    S S S S S S S S S S S S S S S S   S S S S S S S S S S S S S S S S  3x
||----------------------------------|----------------------------------||
||o---------------------------------|---------------------------------o||
||o-------------------------------2-|-2-2-2-2-2-2-2-------------------o||
||--4-4-4-4-4-4-4-0-0-0-0-0-0-0-0---|---------------5-5-5-5-5-5-5-5-4--||


  S S S S S S S S S S S S S S S S   S S S S S S S S S S S S S S E   W
|---------------------------------|-------------------------------|------||
|---------------------------------|-------------------------------|------||
|-------------------------------2-|-2-2-2-2-2-2-2-----------------|------||
|-4-4-4-4-4-4-4-0-0-0-0-0-0-0-0---|---------------5-5-5-5-5-5-5-5-|-5----||


 Chorus
  E S S  S   S S S +S  S S S  S   S S S
|---------------------------------------|
|---------------------------------------|
|---------------------------------------|
|-2-2-4-(2)\-4-4-2-(2)-2-2-4-(2)\-4-4-2-|


  +S  S S S  S   S S S +S  S S S +S  S S S
|------------------------------------------|
|------------------------------------------|
|------------------------------------------|
|-(2)-2-2-4-(2)\-4-4-2-(2)-2-4-2-(2)-2-4-2-|


  S S S S  S   S S S +S  S S S  S   S S S
|-----------------------------------------|
|-----------------------------------------|
|-----------------------------------------|
|-2-2-2-4-(2)\-4-4-2-(2)-2-2-4-(2)\-4-4-2-|


  +S  S S S  S   S S S +S  S S S +S  S E
|----------------------------------------|
|----------------------------------------|
|----------------------------------------|
|-(2)-2-2-4-(2)\-4-4-2-(2)-2-4-2-(2)-2-4-|


  S S S S S S S S S S S S S S S S   S S S S S S S S S S S S S S S S
|---------------------------------|----------------------------------|
|---------------------------------|----------------------------------|
|-5-5-5-5-5-5-5-5-5-5-5-5-5-5-5-5-|-7-7-7-7-7-7-7-7-7-7-7-7-7-7-7-7--|
|---------------------------------|----------------------------------|


  S S S S S S S S S S S S S S S S   S S S S S S S S S S S S S S S S
|---------------------------------|----------------------------------|
|---------------------------------|----------------------------------|
|---------------------------------|-5-5-5-5-5-5-5-5-5-5-5-5-5-5-5-5--|
|-4-4-4-4-4-4-4-4-4-4-4-4-4-4-4-4-|----------------------------------|


  S S S S S S S S S S S S S S S S   S S S S S S S S S S S S S S S S
|---------------------------------|----------------------------------|
|---------------------------------|----------------------------------|
|-5-5-5-5-5-5-5-5-5-5-5-5-5-5-5-5-|-7-7-7-7-7-7-7-7-7-7-7-7-7-7-7-7--|
|---------------------------------|----------------------------------|


  E S S  S   S S S +S  S S S  S   S S S
|---------------------------------------|
|---------------------------------------|
|---------------------------------------|
|-2-2-4-(2)\-4-4-2-(2)-2-2-4-(2)\-4-4-2-|


                                  To Coda
  +S  S S S  S   S S S +S  S S S +S  S S S
|------------------------------------------||
|------------------------------------------||
|------------------------------------------||
|-(2)-2-2-4-(2)\-4-4-2-(2)-2-4-2-(2)-2-4---||

[ Tab from: http://www.guitartabs.cc/tabs/l/lostprophets/to_hell_we_ride_btab.html ]
   Verse
                                                          D.S. al Coda
    S S S S S S S S S S S S S S S S  7x S S S S S S S S S S S S S S S S
||-----------------------------------||---------------------------------||
||o---------------------------------o||---------------------------------||
||o---------------------------------o||---------------------------------||
||--x-x-2h4-2h4-x-x-2h4-2h4-x-x-2h4--||-4-4-4-4-2-2-2-2-2-2-2-2-4-4-4-4-||


 Interlude
  &
  Q.   Q.   E +E     Q.   Q.   Q    Q.   Q.   Q    E. S +E  A E +E  E A E E
|------------------|--------------|--------------|---------------------------|
|------------------|--------------|--------------|---------------------------|
|------------------|--------------|--------------|----0-(0)-0h2-(2)-0-0h2-0--|
|-4----4----4-(4)\-|-0----0----0--|-4----4----4--|-4-------------------------|


  W          W          W          W          Q.   Q.   Q    Q.   Q  +E   Q
|----------|----------|----------|----------|--------------|-----------------|
|----------|----------|----------|----------|--------------|-----------------|
|----------|----------|----------|----------|--------------|-----------------|
|-4--------|-0--------|-4--------|-5--------|-4----4----4--|-5----5--(5)S17--|


  S T T S T T S T T S T T S T T S T T Q
|----------------------------------------|
|----------------------------------------|
|----------------------------------------|
|-4-4-4-4-4-4-4-4-4-4-4-4-4-4-4-4-4-4----|


  S T T S T T S T T S T T S T T S T T E E
|--------------------------------------------|
|--------------------------------------------|
|--------------------------------------------|
|-4-4-4-4-4-4-4-4-4-4-4-4-4-4-4-4-4-4---4\---|


   S T T S T T S T T S T T S T T S T T Q
|-----------------------------------------|
|-----------------------------------------|
|-/9-9-9-9-9-9-9-9-9-9-9-9-9-9-9-9-9-9----|
|-----------------------------------------|


  S T T S T T S T T S T T S T T S T T Q
|-------------------------------------------||
|-------------------------------------------||
|-9-9-9-9-9-9-9-9-9-9-9-9-9-9-9-9-9-9-9\----||
|-------------------------------------------||


 Bridge
  H.      Q    H.      Q    H.      Q     H.       Q
|------------|------------|------------|---------------|
|------------|------------|------------|---------------|
|------------|-7-------7--|-9-------9--|---------------|
|-0-------0--|------------|------------|-12-------12---|


  S S S S S S S S S S S S S S S S   S S S S S S S S S S S S S S S S
|---------------------------------|----------------------------------|
|---------------------------------|----------------------------------|
|-5-5-5-5-5-5-5-5-5-5-5-5-5-5-5-5-|-7-7-7-7-7-7-7-7-7-7-7-7-7-7-7-7--|
|---------------------------------|----------------------------------|


                         Outro
  W          W            S S S S S S S S S S S S S S S S  7x
|----------|----------||-----------------------------------||
|----------|----------||o---------------------------------o||
|----------|----------||o---------------------------------o||
|----------|----------||--2s4-4---4---4---4---4-4---4---x--||


  S S S S S S S S S S S S +S  S E
|------------------------------------*|
|------------------------------------*|
|------------------------------------*|
|-2s4-4---4---4---4---4-4-(4)-4------*|


Duration Legend
---------------
W - whole; H - half; Q - quarter; E - 8th; S - 16th; T - 32nd; X - 64th; a - acciaccatura
+ - note tied to previous; . - note dotted; .. - note double dotted
Uncapitalized letters represent notes that are staccato (1/2 duration)
Irregular groupings are notated above the duration line
Duration letters will always appear directly above the note/fret number it represents the
duration for.  Duration letters with no fret number below them represent rests.  Multi-
bar rests are notated in the form Wxn, where n is the number of bars to rest for.  Low
melody durations appear below the staff

Tablature Legend
----------------
 h   - hammer-on
 p   - pull-off
 b   - bend
 pb  - pre-bend
 r   - bend release (if no number after the r, then release immediately)
 /\  - slide into or out of (from/to "nowhere")
 s   - legato slide
 S   - shift slide
  - natural harmonic
[n]  - artificial harmonic
n(n) - tapped harmonic
 ~   - vibrato
 tr  - trill
 T   - tap
 TP  - trem. picking
 PM  - palm muting
\n/  - tremolo bar dip; n = amount to dip
 \n  - tremolo bar down
 n/  - tremolo bar up
/n\  - tremolo bar inverted dip
 =   - hold bend; also acts as connecting device for hammers/pulls
 <>  - volume swell (louder/softer)
 x   - on rhythm slash represents muted slash
 o   - on rhythm slash represents single note slash

Misc Legend
-----------
 |  - bar
||  - double bar
||o - repeat start
o|| - repeat end
*|  - double bar (ending)
 :  - bar (freetime)
 $  - Segno
 &  - Coda
Tempo markers -  = BPM(8/16=s8/s16), where s8 = swing 8ths, s16 = swing 16ths


***************************************************************************************
* Generated using Power Tab Editor by Brad Larsen - http://powertab.guitarnetwork.org *
***************************************************************************************

Comments