Lostprophets - Thousand Apologies Chords & Tabs

 

Thousand Apologies Chords & Tabs

Lostprophets Chords & Tabs

Version: 1 Type: Bass Tab 0 ratings
1 star 2 stars 3 stars 4 stars 5 stars
comments

Thousand Apologies Bass Tab

   
Band- Lostprophets
Song- Thousand Apologies

Tuning: C,G,C,F

Intro 1:
F:------------------------------------|
C:------------------------------------|
G:-------5-----------------3----------|
C:-1-0-1----0h1-0h1--1-0-1----0h1-0h1-|

Intro 2:
F:-------------------|-------------------|
C:-------------------|-------------------|
G:-------------------|-------------------|
C:-0~~~-5~-3~-7~~-5~-|-0~~~-5~-3~-5~~-3~-|

Intro 3:
F:-------|
C:-------|
G:-------|
C:-12/---|
in this bit keep muting then un-muting to create the on/off effect

Verse:
F:----------------|----------------|
C:----------------|----------------|
G:----------------|----------------|
C:-7--0-0-0-0h5-0-|-7--0-0-0-0h5-0-|

F:----------------|----------------|
C:----------------|----------------|
G:-7--0-0-0-0h5-0-|-7--0-0-0-0h5-0-|
C:----------------|----------------|

Pre-Chorus (& ur all very proud...)
F:--------------------------------|
C:--------------------------------|
G:--------------------------------|
C:-0--0-0--3--3-3--5--5-5--7--7-7-|
[ Tab from: http://www.guitartabs.cc/tabs/l/lostprophets/thousand_apologies_btab.html ]
Chorus 1:
4 bars rest then...
F:-------------------------------------------------------------|
C:-------------------------------------------------------------|
G:-------------------------------------------------------------|
C:-0-0-0-00-00-00-0-0-0-00-00-00-5-5-5-55-55-55-7-7-7-77-77-77-|

Chorus 2:
8 bars rest then...
F:-------------------------------------------------------------|
C:-------------------------------------------------------------|
G:-------------------------------------------------------------|
C:-0-0-0-00-00-00-0-0-0-00-00-00-5-5-5-55-55-55-7-7-7-77-77-77-|

F:-------------------------------------------------------------|
C:-------------------------------------------------------------|
G:-------------------------------------------------------------|
C:-0-0-0-00-00-00-0-0-0-00-00-00-5-5-5-55-55-55-7-7-7-77-77-77-|

Bridge:
F:-----|
C:-----|
G:-----|
C:-2p1-|

Interlude:
F:-------------------|
C:-------------------|
G:-------------------|
C:-1--0-1-b10--0-1-0-|

Outro:
F:--------------|-----------------|
C:--------------|-----------------|
G:--------------|-----------------|
C:-2~~~-0~~-1~~-|-0--0--0--0--0-0-|

Order
Guitar Intro
Intro 1        x4
Intro 2        x1
Intro 3        x1
Verse          x4
Pre-Chorus     x2
Chorus 1       x1
Intro 3        x1
Pre-Chorus     x2
Chorus 2       x1
4 bars rest
Bridge         x8
Interlude      x4
Outro          x4
Comments