Lostprophets - The Fake Sound Of Progress Chords & Tabs

 

The Fake Sound Of Progress Chords & Tabs

Lostprophets Chords & Tabs

Version: 2 Type: Tab 0 ratings
1 star 2 stars 3 stars 4 stars 5 stars
comments

The Fake Sound Of Progress Tab

   
tabbed by tom piddock (pid_182@yahoo.co.uk)

Intro:
E-----0-----0-----0-----0-----
B---3-----3-----3-----3-------
G-----------------------------
D-----------------------------
A-------------3---------------
D-2-----4-----------0---------
Chorus:
E------0-----0-----0-----0-----
B----3-----3-----3-----3-------
G------------------------------
D--------------5---------------
A--2-----4-----3-----0---------
D--2-----4-----------0---------

Verse:
E--------------
B--8-7-8-7-10-8
G--9-9-9-9-9--9

Pre-Verse:
E------7-
B--------
G--7-9--9

Post-Chorus:
E------7-    ----7>10-8
B--------    ----------
G--7-9--9 x3 7-9-------
[ Tab from: http://www.guitartabs.cc/tabs/l/lostprophets/the_fake_sound_of_progress_tab_ver_2.html ]
Breakdown:(rythym example repeated for other chord figures)
E.g:                 rythym for:
E--------------------
B--------------------
G--------------------
D--2-2-2-2-2-2-2--2-2         12--10--
A--2-2-2-2-2-2-2--2-2         12--10--
D--2-2-2-2-2-2-2--2-2         12--10-- and then:
  P.M-----------

E-----------------
B-----------------
G-----------------
D--7-777--5-555-44
A--7-777--5-555-44
D--7-777--5-555-44
 

'it sounds like':
E---------------
B---------------
G---------------
D---------------
A---------------
D--220202/3/2-02

i think that covers the basics of the song.remembering that lost prophets have 2 guitarists.
Comments