Lostprophets - The Fake Sound Of Progress Live Chords & Tabs

 

The Fake Sound Of Progress Live Chords & Tabs

Lostprophets Chords & Tabs

Version: 1 Type: Tab 0 ratings
1 star 2 stars 3 stars 4 stars 5 stars
comments

The Fake Sound Of Progress Live Tab

artista-Lostprophets
song-the fake sound of progress
tab by Manuel (shinobi_89@hotmail.com)



distorsion
D|----------16-16-----------------|
A|-----------------16-16--16------|
F|--------------------------------|
C|--------------------------------|
G|--------------------------------|
C|--------------------------------|

 gtr.1
D|----------0--2-------0--2-------0--2-------0--2|
A|-----------------------------------------------|
F|-----------------------------------------------|
C|-----------------------------------------------|
G|-----------------------------------------------|
C|----4------------6---------0-----------2-------|

coro|distorsion
D|-------------------------|---------------------------|
A|-------------------------|---------------------------|
F|-------------------------|---------------------------|
C|-----4-----6----0-----2--|--4-----6----0---222-------|
G|-----4-----6----0-----2--|--4-----6----0---222--pm---|
C|-----4-----6----0-----2--|--4-----6----0---222-------|

verso        tremolo
D|--9-----9---7---11---9---7--------------|
A|--7-----8---9---7----9---7--------------|
F|--9-----7---9--------7---7--------------|
C|----------------------------------------|
G|----------------------------------------|
C|----------------------------------------|
[ Tab from: http://www.guitartabs.cc/tabs/l/lostprophets/the_fake_sound_of_progress_live_tab.html ]
gtr.2
D|-------9--------9------9------9-----9----------|
A|-----7-------7-------7------7-----7------------|
F|---9------9-------9------9------9--------------|
C|-----------------------------------------------|
G|-----------------------------------------------|
C|-----------------------------------------------|

Repetir verso y coro

gtr.2
D|-------9--------9------9------9-----9----------|
A|-----7-------7-------7------7-----7------------|
F|---9------9-------9------9------9--------------|
C|-----------------------------------------------|
G|-----------------------------------------------|
C|-----------------------------------------------|

Gtr.1
D|--------------------------------------------------|
A|----------9--1011-10/------4----4-2----2-0-------|
F|----------------------------4----4-2----2-0-------|
C|----------------------------4----4-2----2-0-------|
G|----------------------------4----4-2----2-0-------|
C|--------------------------------------------------|

D|--------------------------------------------------------------------------|
A|--------------------------------------------------------------------------|
F|--------------------------------------------------------------------------|
C|----4---4---44444-4-44---222222--2-22--333333--3--33---444---222--000-----|
G|----4---4---44444-4-44---222222--2-22--444444--4--44---444---222--000-----|
C|----4---4---44444-4-44---222222--2-22--555555--5--55---444---222--000-----|
      |------pm----|       |-pm-|        |--pm-| 

E---------------
B---------------
G---------------
D---------------
A---------------
D--220202/3/2-02

Repetir coro

final
D|-------------12-9-|-----11----10--9-----|
A|---9------10------|-9--10---------------|
F|-----9h11---------|--------11-----------|
C|------------------|---------------------|
G|------------------|---------------------|
C|------------------|---------------------|
Comments