Lostprophets - The Fake Sound Of Progress Chords & Tabs

 

The Fake Sound Of Progress Chords & Tabs

Lostprophets Chords & Tabs

Version: 2 Type: Bass Tab 0 ratings
1 star 2 stars 3 stars 4 stars 5 stars
comments

The Fake Sound Of Progress Bass Tab

   
Lost Prophets - Fake Sound Of Progress
Tabbed By: cameron


The one that isnt on the video is about 5 min long

i think he tunes his 4 string weird so i just put it on a 5 string
G,D,A,E,B
intro
G|---------------------------
D|---------------------------
A|-7-9-3-5-7-9-3-5-----------
E|---------------------------
B|---------------------------

verse
G|---------------------------
D|---------------------------
A|---------------------------
E|---------------------------
B|-5-55-5/1-11-1-------------

Pre Chorus
G|---------------------------
D|---------------------------
A|-7-777-7h9-999-3-333-3h5-555-5
E|---------------------------
B|--------------------------

Chorus
G|---------------------------
D|---------------------------
A|-7-7h9-9-3-3h5-5-----------
E|---------------------------
B|---------------------------

After Chorus
G|---------------------------
D|-2^^^2-2^^^2---------------
A|--2-2---2-2----------------
E|---------------------------
B|---------------------------x2

Heavy part
G|---------------------------
D|---------------------------
A|-7777777r77777-55555555r55555
E|---------------------------
B|---------------------------

G|---------------------------
D|---------------------------
A|-3333333r33333-0000-----------
E|--------------------3333-3h000-
B|---------------------------

Ending
G|---------------------------
D|-----9-----9-----9-9h10-9--
A|-7-10--7-10--7-10----------
E|---------------------------
B|---------------------------x2
===========Lost Prophets - fake sound of progress
Tabbed By: steve devaul
EMail: stifler828@hotmail.com


tuning: drop d

the other tab is way the hell off, this is a super ez song to play,
this is just the intro and chorus, i forgot the outro

intro 
g-----------------
d----------------- let ring until next note {repeats awhile}
a---------3---5---
d-2---4-----------

then

chorus
g-------------------
d-------------------
a-7---9---10---12--- this repeats a few times then back to intro
d------------------- then figure the outro out for yourself

super ez song to play, listen to the song for timing
===========


Lost Prophets
Fake Sound of Progress
Tuning= D A D G


intro 1/outro
g------------------------------------------------------------------------------------|
d------------------------------------------------------------------------------------|
a---7--9-----------------------------------------------------------------------------|
d---------10--12---------------------------------------------------------------------|
[ Tab from: http://www.guitartabs.cc/tabs/l/lostprophets/the_fake_sound_of_progress_btab_ver_2.html ]
intro 2/bridge/chorus
g------------------------------------------------------------------------------------|
d------------------------------------------------------------------------------------|
a---7-7-7--9-9-9---------------------------------------------------------------------|
d-----------------10-10-10--12-12-12-------------------------------------------------|

intro 3
g------------------------------------------------------------------------------------|
d------------------------------------------------------------------------------------|
a---7--7--7--7--7--7--7--------------------------------------------------------------|
d--7--7--7--7--7--7--7---------------------------------------------------------------|

verse
g------------------------------------------------------------------------------------|
d------------------------------------------------------------------------------------|
a------------------------------------------------------------------------------------|
d--5--55-5--1--11-1--5--55-5--0--00-0------------------------------------------------|

riff 1
g------------------------------------------------------------------------------------|
d------------------------------------------------------------------------------------|
a---7-7-7--9-9-9---------------------------------------------------------------------|
d-----------------10-10-10--7-7-7----------------------------------------------------|

riff 2
g------------------------------------------------------------------------------------|
d------------------------------------------------------------------------------------|
a--7----7----7-----------------------------------------------------------------------|
d----10---10---10--------------------------------------------------------------------|

riff 3
g------------------------------------------------------------------------------------|
d------------------------------------------------------------------------------------|
a--7-7-77-7-7-7-7-7-77---------------------5-5-55-5-5-5-5-5-55-2-2-22-2-2-2-2-22-----|
d----------------------5-5-55-5-5-5-5-5-55-------------------------------------------|

end
g------------------------------------------------------------------------------------|
d------------------------------------------------------------------------------------|
a------2-2-32-----2-2-32-------------------------------------------------------------|
d--2-2--------2-2--------------------------------------------------------------------|

order=
intro 1 x 4
intro 2 x 6
intro 3 x 1 
verse   x 4
bridge  x 4 
chorus  x 8
intro 3 x 1
verse   x 4
bridge  x 4
chorus  x 4
riff 1  x 4
riff 2  x 2
riff 3  x 8
outro   x 4
chorus  x 4
riff 1  x 4
end     x 4
Comments