Lostprophets - The Fake Sound Of Progress Chords & Tabs

 

The Fake Sound Of Progress Chords & Tabs

Lostprophets Chords & Tabs

Version: 1 Type: Bass Tab 0 ratings
1 star 2 stars 3 stars 4 stars 5 stars
comments

The Fake Sound Of Progress Bass Tab

Artist 	: Lost Prophets
Song	: The Fake Sound Of Progress

Submitted by HSC

(4 - string version)

Intro
(x 10)
G -------
D 2-4---0 
A ----3--
E -------

Verse
(x 4)
G -----------------------------
D -----------------------------
A 3----3--3----3---------------
E ---------------0----0--0----0

Chorus
(x 4)
G ----------------------------------------------
D 2-2-2-2-2-2-4-4-4-4-4-4------------0-0-0-0-0-0
A -----------------------3-3-3-3-3-3------------
E ----------------------------------------------

(x 4)
G -------
D 2-4---0 
A ----3--
E -------

Verse
(x 4)
G -----------------------------
D -----------------------------
A 3----3--3----3---------------
E ---------------0----0--0----0
[ Tab from: http://www.guitartabs.cc/tabs/l/lostprophets/the_fake_sound_of_progress_btab.html ]
Chorus
(x 4)
G ----------------------------------------------
D 2-2-2-2-2-2-4-4-4-4-4-4------------0-0-0-0-0-0
A -----------------------3-3-3-3-3-3------------
E ----------------------------------------------

(x 4)
G -------
D 2-4---0 
A ----3--
E -------

(x 2)
G ---------------------------------------------------------------------------------
D 2-2-2-2-2-2-2-2-2-2-0-0-0-0-0-0-0-0-0-0------------------------------------------
A ---------------------------------------3-3-3-3-3-3-3-3-3-3-0-0-0-0---------------
E ------------------------------------------------------------------3-3-3-3-2-2-2-2

Chorus
(x 4)
G ----------------------------------------------
D 2-2-2-2-2-2-4-4-4-4-4-4------------0-0-0-0-0-0
A -----------------------3-3-3-3-3-3------------
E ----------------------------------------------

(x 4)
G -------
D 2-4---0 
A ----3--
E -------

(x 4)
G ----------------------------------------------
D 2-2-2-2-2-2-4-4-4-4-4-4------------0-0-0-0-0-0
A -----------------------3-3-3-3-3-3------------
E ----------------------------------------------
Comments