Lostprophets - Start Something Chords & Tabs

 

Start Something Chords & Tabs

Lostprophets Chords & Tabs

Version: 3 Type: Tab 0 ratings
1 star 2 stars 3 stars 4 stars 5 stars
comments

Start Something Tab

   
ARTIST: LOSTPROPHETS

ALBUM: START SOMETHING

cONTENTS:

1: WE STILL KILL THE OLD WAY

2: TO HELL WE RIDE

3: LAST TRAIN HOME

4: WAKE UP (MAKE A MOVE)

5: BURN BURN

6: I DONT KNOW

7: HELLO AGAIN

8: GOODBYE TONIGHT

9: START SOMETHING

10: A MILLION MILES

11: LAST SUMMER

12: WE ARE GODZILLA YOU ARE JAPAN

13: SWAY





Ok every song on this entire album is played on Drop D tuning (rhythm and lead riffs)
apart from last train home in which the rhythm guitar is played on Drop C



TRACK 1: WE STILL KILL THE OLD WAY


Intro: 
|----------------------------|
|----------------------------|
|----------------------------| x4
|-0-0--0--0--0-0--0--0-0-0-0-|
|-0-0--0--0--0-0--0--0-0-0-0-|
|-0-0--0--0--0-0--0--0-0-0-0-|
PM. .        .       . . . 

Then play the intro but louder with the 2nd guitar playing
the top strings open a few times at the start of each riff.


Intro 2:
Rhythm: This bit looks pretty confusing but its ok.
All of these bits are played one after another straightaway.
Ive only put it like this because it won't fit on 1 page.
|---------------------------------|
|---------------------------------|
|---------------------------------|
|---------------------------------|
|-5-7-7-5-7-7-5-7-7-5-7-7-5-7-7-5-|
|-5-7-7-5-7-7-5-7-7-5-7-7-5-7-7-5-|

|---------------------------------|
|---------------------------------|
|---------------------------------|
|---------------------------------|
|-3-7-7-3-7-7-3-7-7-3-7-7-3-7-7-3-|
|-3-7-7-3-7-7-3-7-7-3-7-7-3-7-7-3-|

|---------------------------------|
|---------------------------------|
|---------------------------------|
|---------------------------------|
|-0-5-5-0-5-5-0-5-5-0-5-5-0-5-5-0-|
|-0-5-5-0-5-5-0-5-5-0-5-5-0-5-5-0-|

|---------------------------------|
|---------------------------------|
|---------------------------------|
|---------------------------------|
|-3-7-7-3-7-7-3-7-7-3-7-7-3-7-7-3-|
|-3-7-7-3-7-7-3-7-7-3-7-7-3-7-7-3-|

Lead: This is playted on the second time through with the rhythm.
|-----------------------------------------------------0-|
|-----------------------------------------------------0-|
|-----------------------------------------------------0-|
|------------------------------------------------0------|
|-3---3-5--7--0---0-2--3-------0--2-----------0--0------|
|-------------------------5----------3---3-5-----0------|


Verse:
|-----------------------------------------------------------------------|
|-----------------------------------------------------------------------|
|-----------------------------------------------------------------------|
|-----------------------------------------------------------------------|
|-----------------------------------------------------------------------|
|-5-7-7-5-7-7-5-7\--3-7-7-3-7-7-3-7\--0-5-5-0-5-5-0-5\--3-7-7-3-7-7-3-7\|

At the end of the first time through the verse riff, play this:
|----------------------------|
|----------------------------|
|----------------------------|
|----------------------------|
|----------------------------|
|-<5>-<5>-<5>----<5>-<5>-<5>-|

Then play the verse with heavy distortion


Bridge 1:                                          1st time   2nd time
|-------------------------------------------------|---------|---12--12|
|----10-----10-----10-----10-----10-----10-----10-|---10--10|---10--10|
|----9------9------9------9------9------9------9--|---9---9-|---9---9-|
|-7-7----7-7----7-7----7-7----7-7----7-7----7-7---|-7-------|-7-------|
|-------------------------------------------------|---------|---------|
|-------------------------------------------------|---------|---------|
PM. .    . .    . .    . .    . .    . .    . .     .         .

Bridge 2: On the second time through of this riff, keep playing 
the muted notes and dont play the end bit... if u get what i mean.
Oh yeah and slowly start to release the PM at the end. 
|-----------------------------------------------------------------|
|-----------------------------------------------------------10-10-|
|-----9-------9-------9-------9-------9-------9-------9-----9--9--| x2
|-7-7---7-7-7---7-7-7---7-7-7---7-7-7---7-7-7---7-7-7---7-7-------|
|-----------------------------------------------------------------|
|-----------------------------------------------------------------|
PM. . . . . . . . . . . . . . . . . . . . . . . . . . . . .


Pre-Chorus:
|-----------------------------------------------------------------|
|-----------------------------------------------------------------|
|-----------------------------------------------------------------|
|-----------------------------------------------------------------|
|-----------------------------------------------------------------|
|-5-7-7-5-7-7-5-7-7-5-7-7-5-7-7-5-5-7-7-5-7-7-5-7-7-5-7-7-5-7-7-5-|


Chorus:
Rhythm:
|----------------------------------|
|----------------------------------|
|----------------------------------|
|-7-------9-------10-------0-------|
|-7-------9-------10-------0-------|
|-7-------9-------10-------0-------|

|-------------------------|
|-------------------------|
|-------------------------|
|-7-------9-------3-------|
|-7-------9-------3-------|
|-7-------9-------3-------|

|----------------------------|
|----------------------------|
|----------------------------| 
|-0-0--0--0--0-0--0--0-0-0-0-|
|-0-0--0--0--0-0--0--0-0-0-0-|
|-0-0--0--0--0-0--0--0-0-0-0-|
PM. .        .       . . . 

Lead: Play this with the open PM bit at the end 
of the chorus.
|--------------------------------------|
|--------------------------------------|
|-14-14--14-14--14-14--14-14--14-14-14-|
|-x--x---x--x---x--x---x--x---x--x--x--|
|-12-12--12-12--12-12--12-12--12-12-12-|
|--------------------------------------|

Then play the verse.

Then the bridge.

Then this slightly different Pre-Chorus:
|----------------------------------------------------------------|
|----------------------------------------------------------------|
|-----------------------------------------9------9------9------9-|
|-----------------------------------------7------7------7------7-|
|-----------------------------------------7------7------7------7-|
|-5-7-7-5-7-7-5-7-7-5-7-7-5-7-7-5-5-7-7-5-7------7------7------7-|

Then play a chorus for the normal length.

Then this:
|----------------------------|
|----------------------------|
|----------------------------| x4
|-0-0--0--0--0-0--0--0-0-0-0-|
|-0-0--0--0--0-0--0--0-0-0-0-|
|-0-0--0--0--0-0--0--0-0-0-0-|
PM. .        .       . . . 


Interlude: Repeat this bit twice. Play this clean with a bit of delay
|-----12----12---------12-----12----------12-----12------|
|---10----10----10---10-----10-----10---10-----10-----10-|
|-9-----9-----9----11-----11-----11---12-----12-----12---|
|--------------------------------------------------------|
|--------------------------------------------------------|
|--------------------------------------------------------|

|--------------------------------------------------------|
|--------------------------------------------------------|
|-12-12-12---11-11-11---9-9------------------------------|
|--------------------------------------------------------|
|--------------------------------------------------------|
|--------------------------------------------------------|

Interlude Part 2: Play this with distortion
|-12-----12-----12---12-----12-----12---|
|---10-----10-----10---10-----10-----10-|
|------9------9-----------9------9------|
|---------------------------------------|
|---------------------------------------|
|---------------------------------------|

|-12----12----12---12----12----12---10----10----10---10----10----10--|
|---10----10----10---10----10----10---12----12----12---10----10----10|
|------9-----9----------9-----9---------12----12---------11----11----| x2
|--------------------------------------------------------------------| 
|--------------------------------------------------------------------|
|--------------------------------------------------------------------|

On the last time the other guitar plays this really quiet:
|-------------------------|
|-------------------------|
|-------------------------|
|-7-------9-------3-------|
|-7-------9-------3-------|
|-7-------9-------3-------|

End of interlude:
|-----------------------------------------------------------------|
|-----------------------------------------------------------------|
|-----------------------------------------------------------------|
|-5-5-5-5-5-5-5-5-4-4-4-4-4-4-4-4-2-2-2-2-2-2-2-2-4-4-4-4-4-4-4-4-|
|-5-5-5-5-5-5-5-5-4-4-4-4-4-4-4-4-2-2-2-2-2-2-2-2-4-4-4-4-4-4-4-4-|
|-5-5-5-5-5-5-5-5-4-4-4-4-4-4-4-4-2-2-2-2-2-2-2-2-4-4-4-4-4-4-4-4-|

Then play a chorus for the normal length and thats all.




TRACK 2: TO HELL WE RIDE



Intro: Pick this really fast with PM
|------12--------12--------12--------12-------12------12------12------12-|
|----9----9----9----9----9----9----9----9---10--10--10--10--10--10--10---|
|-11--------11--------11--------11--------11------11------11------11-----|
|------------------------------------------------------------------------|
|------------------------------------------------------------------------|
|------------------------------------------------------------------------|


Intro Part 2:
Rhythm:
|-----------------------------------------------------------|
|-----------------------------------------------------------|
|-----------------------------------------------------------| x2
|-2---2-4-2-4-4-2---2-4-2-4-4-2---2-4-2-4-4-2---2-4-2---2-4-|
|-2---2-4-2-4-4-2---2-4-2-4-4-2---2-4-2-4-4-2---2-4-2---2-4-|
|-2---2-4-2-4-4-2---2-4-2-4-4-2---2-4-2-4-4-2---2-4-2---2-4-|

Lead:
|---------0-------------0-------------0---------------------|
|---------0-------------0-------------0---------------------|
|---------0-------------0-------------0---------------------| x2
|-----------------------------------------------------------|
|-----------------------------------------------------------|
|-----------------------------------------------------------|

Intro Part 3:
Rhythm:
|----------------------|
|----------------------|
|----------------------|
|-0---------2----------|
|-0---------2----------|
|-0---------2----------|

Lead:
|-----------0----------|
|-----------0----------|
|-----------0----------|
|----------------------|
|----------------------|
|----------------------|


Verse:
Rhythm:
|---------------------------------|
|---------------------------------|
|---------------------------------| x8
|-x-x-2/4-2/4-x-x-2/4-2/4-x-x-2/4-|
|-x-x-2/4-2/4-x-x-2/4-2/4-x-x-2/4-|
|-x-x-2/4-2/4-x-x-2/4-2/4-x-x-2/4-|

Lead: I think this little quiet bit is played on 
guitar anyway. When you play the last note, just
bend a release it alot until the end of the verse
|-------------------------------------|
|-------------------------------------|
|-------------------------------------| 
|-------------------------------------|
|-9~~~~~~~-12~~~~~~-11~~~~~~-12~~~~~~-|
|-------------------------------------|


|--------------------------------|
|--------------------------------|
|-11~~~~~~-14~~~~~~-13brbrbrbrbr-|
|--------------------------------|
|--------------------------------|
|--------------------------------|


Pre-Chorus: Man this bit is confusing
Rhythm:
|---------------------------------------------|
|---------------------------------------------|
|---------------------------------------------|
|--4--4-4-44--0--0-0-00--9--9-9-99--5--5-5-55-|
|--4--4-4-44--0--0-0-00--9--9-9-99--5--5-5-55-|
|--4--4-4-44--0--0-0-00--9--9-9-99--5--5-5-55-|

|-----------------------------------------------------|
|-----------------------------------------------------|
|-----------------------------------------------------|
|--4--4-4-44--0--0-0-00--9-9-9-9-9-9-9-5--5-5-5-5-5-5-|
|--4--4-4-44--0--0-0-00--9-9-9-9-9-9-9-5--5-5-5-5-5-5-|
|--4--4-4-44--0--0-0-00--9-9-9-9-9-9-9-5--5-5-5-5-5-5-|
PM                         . . .   . .    . . .   . . 

Lead:
|----------------------|
|----------------------|
|-9br--7--6--7--6/4--6-| x3
|----------------------|
|----------------------|
|----------------------|

|--------------------------------|
|--------------------------------|
|-0-0-0-9--0-0-4--0-0-0-9--0-0-9-|
|--------------------------------|
|--------------------------------|
|--------------------------------|
PM. . .    . .    . . .    . . 

Pre-Chorus 2: On the second part of the pre-chorus play this
Rhythm:
|---------------------------------------------|
|---------------------------------------------|
|---------------------------------------------| x2
|--4--4-4-44--0--0-0-00--9--9-9-99--5--5-5-55-|
|--4--4-4-44--0--0-0-00--9--9-9-99--5--5-5-55-|
|--4--4-4-44--0--0-0-00--9--9-9-99--5--5-5-55-|

Lead:
|----------------------|
|----------------------|
|-9br--7--6--7--6/4--6-| x2
|----------------------|
|----------------------|
|----------------------|

|--------------------------------|
|--------------------------------|
|-0-0-0-9--0-0-4--0-0-0-9--0-0-9-|
|--------------------------------|
|--------------------------------|
|--------------------------------|
PM. . .    . .    . . .    . . 

|--------------------------------|
|--------------------------------|
|-9-9-9---9-9-9---9-9-9---9-9-9--|
|--------------------------------|
|--------------------------------|
|--------------------------------|

End of Pre-Chorus:
Rhythm: Just let this ring for a bit
|-----|
|-----|
|-----|
|--5--|
|--5--|
|--5--|

Lead: Not the exact amount of times, but u get the idea
|----------------------------------|
|----------------------------------|
|-21-21-21-21-21-21-21-21-21-21-21-|
|----------------------------------|
|----------------------------------|
|----------------------------------|


Chorus:
Rhythm:
|-----------------------------------------------------------|
|-----------------------------------------------------------|
|-----------------------------------------------------------| x2
|-2---2-4-2-4-4-2---2-4-2-4-4-2---2-4-2-4-4-2---2-4-2---2-4-|
|-2---2-4-2-4-4-2---2-4-2-4-4-2---2-4-2-4-4-2---2-4-2---2-4-|
|-2---2-4-2-4-4-2---2-4-2-4-4-2---2-4-2-4-4-2---2-4-2---2-4-|

Lead:
|---------0-------------0-------------0---------------------|
|---------0-------------0-------------0---------------------|
|---------0-------------0-------------0---------------------| x2
|-----------------------------------------------------------|
|-----------------------------------------------------------|
|-----------------------------------------------------------|

Second bit of chorus:
Rhythm: Not the exact amount of strumming,
listen to the song to see how it goes
|---------------------------------|
|---------------------------------|
|---------------------------------|
|-0-0-0-0-2-2-2-2-4-4-4-4-7-7-7-7-|
|-0-0-0-0-2-2-2-2-4-4-4-4-7-7-7-7-|
|-0-0-0-0-2-2-2-2-4-4-4-4-7-7-7-7-|

|-----------------|
|-----------------|
|-----------------|
|-0-0-0-0-2-2-2-2-|
|-0-0-0-0-2-2-2-2-|
|-0-0-0-0-2-2-2-2-|

Lead: I think sounds ok, but it could be wrong
Hit all of these notes pretty fast
|---------------------|
|-3--5--7--10--15--17-|
|---------------------|
|---------------------|
|---------------------|
|---------------------|
Play all those notes throught the whole of this section,
listen to the song to see what i mean


Then play this bit 4 a little:
Rhythm:
|-----------------------------------------------------------|
|-----------------------------------------------------------|
|-----------------------------------------------------------|
|-2---2-4-2-4-4-2---2-4-2-4-4-2---2-4-2-4-4-2---2-4-2---2-4-|
|-2---2-4-2-4-4-2---2-4-2-4-4-2---2-4-2-4-4-2---2-4-2---2-4-|
|-2---2-4-2-4-4-2---2-4-2-4-4-2---2-4-2-4-4-2---2-4-2---2-4-|

Lead:
|---------0-------------0-------------0---------------------|
|---------0-------------0-------------0---------------------|
|---------0-------------0-------------0---------------------|
|-----------------------------------------------------------|
|-----------------------------------------------------------|
|-----------------------------------------------------------|

Then play the Verse for the normal length.

Then the Pre-Chorus as usual.

Then the End of Pre-Chorus bit.

Then all of the Chorus for the normal length.

Then play this

Interlude:
|------12-------12--------12-----12-|
|-10--------9-----------9------10---|
|--------------------11------11-----|
|-----------------------------------|
|-----------------------------------|
|-----------------------------------|

Interlude Part 2: Same sort of thing as the intro
|------12--------12--------12--------12-------12------12------12------12-|
|----9----9----9----9----9----9----9----9---10--10--10--10--10--10--10---|
|-11--------11--------11--------11--------11------11------11------11-----|
|------------------------------------------------------------------------|
|------------------------------------------------------------------------|
|------------------------------------------------------------------------|

|-----14------14------14------14------14------14------14------14-|
|---12--12--12--12--12--12--12--12--12--12--12--12--12--12--12---|
|-13------13------13------13------14------14------14------14-----|
|----------------------------------------------------------------|
|----------------------------------------------------------------|
|----------------------------------------------------------------|
Play all of this twice, except on the last time only play the first bit,
if u get what i mean. Just listen to the song


Last part of Interlude: Strum this very fast
Lead: Not the exact amount of strumming is shown below
|-12-12-12-12-12-----12-12-12-12-12-----12-12-12-12-12------12-12-12-12-12-|
|-9--9--9--9--9------9--9--9--9--9------10-10-10-10-10------10-10-10-10-10-|
|-11-11-11-11-11-----11-11-11-11-11-----11-11-11-11-11------11-11-11-11-11-|
|--------------------------------------------------------------------------|
|--------------------------------------------------------------------------|
|--------------------------------------------------------------------------|

Rhythm: I think there is a second guitar here
Not the exact amount of strumming is shown below
|---------------------------------------------------------------|
|---------------------------------------------------------------|
|---------------------------------------------------------------|
|-4-4-4-4-4-4-4---4-4-4-4-4-4-4---4-4-4-4-4-4-4---4-4-4-4-4-4-4-|
|-4-4-4-4-4-4-4---4-4-4-4-4-4-4---4-4-4-4-4-4-4---4-4-4-4-4-4-4-|
|-4-4-4-4-4-4-4---4-4-4-4-4-4-4---4-4-4-4-4-4-4---4-4-4-4-4-4-4-|

After u've played that bit, theres this bit towards the end 
which i dont know what to cll :S so ill just call it Interlude 2


Interlude 2:
Rhythm:
|---------------------------------|
|---------------------------------|
|---------------------------------|
|-0-----0-2-----2-4-----4-0-----0-|
|-0-----0-2-----2-4-----4-0-----0-|
|-0-----0-2-----2-4-----4-0-----0-|

|-----------------|
|-----------------|
|-----------------|
|-0-----0-2-----2-|
|-0-----0-2-----2-|
|-0-----0-2-----2-|

Lead:
|------12--------12--------12--------12-------12------12------12------12-|
|----9----9----9----9----9----9----9----9---10--10--10--10--10--10--10---|
|-11--------11--------11--------11--------11------11------11------11-----|
|------------------------------------------------------------------------|
|------------------------------------------------------------------------|
|------------------------------------------------------------------------|

|-----14------14------14------14------14------14------14------14---|
|---12--12--12--12--12--12--12--12--12--12--12--12--12--12--12--12-|
|-13------13------13------13------14------14------14------14-------|
|------------------------------------------------------------------|
|------------------------------------------------------------------|
|------------------------------------------------------------------|

|------12--------12--------12--------12-------12------12------12------12-|
|----9----9----9----9----9----9----9----9---10--10--10--10--10--10--10---|
|-11--------11--------11--------11--------11------11------11------11-----|
|------------------------------------------------------------------------|
|------------------------------------------------------------------------|
|------------------------------------------------------------------------|


End of song bit:
Rhythm:
|--------------------------------------|
|--------------------------------------|
|--------------------------------------|
|-2/4-4-4-4-4-44-4--x-2/4-4-4-4-4-44-4-|
|-2/4-4-4-4-4-44-4--x-2/4-4-4-4-4-44-4-|
|-2/4-4-4-4-4-44-4--x-2/4-4-4-4-4-44-4-|


Final bit of song: Both guitars play this bit at first
but on the second time 1 guitar plays it with lead over
the top
Rhythm:
|--------------------------------------|
|--------------------------------------|
|--------------------------------------| Repeat a few times
|-2/4-4-4-4-4-44-4--x-2/4-4-4-4-4-44-4-|
|-2/4-4-4-4-4-44-4--x-2/4-4-4-4-4-44-4-|
|-2/4-4-4-4-4-44-4--x-2/4-4-4-4-4-44-4-|

Lead: God knows what's actually played here,
but thissounds good.
Just pick each of these notes very fast.
Listen to the song to here when you change note.

|-12-12-12-12-12-12-14-14-14-14-14-14-|
|-------------------------------------|
|-------------------------------------|
|-------------------------------------|
|-------------------------------------|
|-------------------------------------|



TRACK 3: LAST TRAIN HOME (REMEMBER THE RHYTHM GUITAR IS IN DROP C FOR THIS SONG)


  Intro/Chorus (Guitar 1) Clean
E|-------------------------------------|-------------------------------------|
B|-------------------------------------|-------------------------------------|
G|-------16-------16-------16-------16-|-------16-------16-------16-------16-|
D|----17-------17-------17-------17----|----17-------17-------17-------17----|
A|-15-------15-------15-------15-------|-------------------------------------|
D|-------------------------------------|-14-------14-------14-------14-------|

E|---------------------------------|---------------------------------|
B|---------------------------------|---------------------------------|
G|------16------16------16------16-|------14------14------14------14-|
D|---17------17------17------17----|---17------17------17------17----|
A|---------------------------------|---------------------------------|
D|-0-------0-------0-------0-------|-0-------0-------0-------0-------|

  Intro/Chorus (Guitar 2) Distorted
D|-----------------------|---------------|--------------|--------------|--------------|--------------|
A|-----------------------|---------------|--------------|--------------|--------------|--------------|
F|-7-7--7-7-7--7-7-7-7---|---------------|--------------|--------------|--------------|--------------|
C|-7-7--7-7-7--7-5-5-5-2-|-4-4-4-4--4--4-|-2-2-2--2-2-2-|-2-2-2--2-2-2-|-2-2-2--2-2-2-|-2-2-2--2-2-2-|
G|-5-5--5-5-5--5-5-5-5-2-|-4-4-4-4--4--4-|-2-2-2--2-2-2-|-2-2-2--2-2-2-|-2-2-2--2-2-2-|-2-2-2--2-2-2-|
C|---------------------2-|-4-4-4-4--4--4-|-2-2-2--2-2-2-|-2-2-2--2-2-2-|-2-2-2--2-2-2-|-2-2-2--2-2-2-|
pm                                         . .    . .     . .    . .     . .    . .     . .    . .     

  Verse Part 1 (Guitar 1) Clean
E|-------------------------------------|-------------------------------------|-------------------------------------|
B|-------------------------------------|-------------------------------------|-------------------------------------|
G|-16-16-16-16-16-16-16-16-16-16-16-16-|-16-16-16-16-16-16-16-16-16-16-16-16-|-16-16-16-16-16-14-14-14-14-14-14-14-|
D|-17-17-17-17-17-17-17-17-17-17-17-17-|-17-17-17-17-17-17-17-17-17-17-17-17-|-17-17-17-17-17-17-17-17-17-17-17-17-|
A|-15-15-15-15-15-15-15-15-15-15-15-15-|--X--X--X--X--X--X--X--X--X--X--X--X-|-12-12-12-12-12-12-12-12-12-12-12-12-|
D|-------------------------------------|-14-14-14-14-14-14-14-14-14-14-14-14-|-12-12-12-12-12-12-12-12-12-12-12-12-|

  Verse Part 2 (Guitar 1) Clean
E|-------------------------------------|-------------------------------------|
B|-------------------------------------|-------------------------------------|
G|-16-16-16-16-16-19-19-19-16-16-16-16-|-16-16-16-16-16-19-19-19-16-16-16-16-|
D|-17-17-17-17-17-17-17-17-17-17-17-17-|-17-17-17-17-17-17-17-17-17-17-17-17-|
A|-15-15-15-15-15-15-15-15-15-15-15-15-|--X--X--X--X--X--X--X--X--X--X--X--X-|
D|-------------------------------------|-14-14-14-14-14-14-14-14-14-14-14-14-|

E|-------------------------------------|----------------------------------------|
B|-------------------------------------|----------------------------------------|
G|-14-14-14-14-14-16-16-16-19-19-14-14-|-14-14-14-16-16-16-14-14-14-19-19-16-16-|
D|-17-17-17-17-17-17-17-17-17-17-17-17-|-17-17-17-17-17-17-17-17-17-17-17-17-17-|
A|--X--X--X--X--X--X--X--X--X--X--X--X-|--X--X--X--X--X--X--X--X--X--X--X--X--X-|
D|-0--0--0--0--0--0--0--0--0--0--0--0--|-0--0--0--0--0--0--0--0--0--0--0--0--0--|

  Pre-Chorus (Guiar 1) Distorted
E|-17-17-17-17-17-17-17-17-17-17-17-17/19-|-15-15-15-15-15-15-15-15-15-15-15-15/17-|
B|--X--X--X--X--X--X--X--X--X--X--X--X/-X-|--X--X--X--X--X--X--X--X--X--X--X--X/-X-|
G|-14-14-14-14-14-14-14-14-14-14-14-14/16-|-12-12-12-12-12-12-12-12-12-12-12-12/14-|
D|----------------------------------------|----------------------------------------|
A|----------------------------------------|----------------------------------------|
D|----------------------------------------|----------------------------------------|

E|-10-10-10-10-10-10-10-10-10-10-10-10/12-|-5-5-5-5-5-5-5-5-5-5-5/7-|-------------------------------|
B|--X--X--X--X--X--X--X--X--X--X--X--X/-X-|-X-X-X-X-X-X-X-X-X-X-X/X-|-------------------------------|
G|--7--7--7--7--7--7--7--7--7--7--7--7/-9-|-2-2-2-2-2-2-2-2-2-2-2/4-|--0----16-------16-------16----|
D|----------------------------------------|-------------------------|----17-------17-------17-------|
A|----------------------------------------|-------------------------|-15-------15-------15-------15-|
D|----------------------------------------|-------------------------|-------------------------------|
                                                                     <<<<<<<<<>>>>>>>>>>>

  Pre-Chorus (Guiar 2) Distorted
D|-------------------------|------------------------|
A|-------------------------|------------------------|
F|-------------------------|------------------------|
C|-9-9-9-9-9--9--9-9-10-10-|-12-12-12-12-12--12--12-|
G|-9-9-9-9-9--9--9-9-10-10-|-12-12-12-12-12--12--12-|
C|-9-9-9-9-9--9--9-9-10-10-|-12-12-12-12-12--12--12-|

D|-------------------------|----------------|----|
A|-------------------------|----------------|----|
F|-------------------------|----------------|----|
C|-7-7-7-7-7--7--7-7-7/9-2-|-2-2-2-2-2--2-2-|-12-|
G|-7-7-7-7-7--7--7-7-7/9-2-|-2-2-2-2-2--2-2-|-12-|
C|-7-7-7-7-7--7--7-7-7/9-2-|-2-2-2-2-2--2-2-|-12-|
                                             <>


  Bridge (Guitar 1) Distorted
E|--------0---0---0---0-|------0-------0-------0-------0-|------0-------0-|
B|--------8---8---8---8-|----8-------8-------8-------8---|----8-------8---|
G|-------11--11--11--11-|-11------11------11------11-----|-11------11-----|
D|-------10--10--10--10-|--------------------------------|----------------|
A|-------10--10--10--10-|--------------------------------|----------------|
D|-10-10-10--10--10--10-|--------------------------------|----------------|
pm .  .

  Bridge (Guitar 2) Distorted
D|--------------|--------------|--------------|--------------|
A|--------------|--------------|--------------|--------------|
F|--------------|--------------|--------------|--------------|
C|-0-0-0--0-0-0-|-0-0-0--0-0-0-|-0-0-0--0-0-0-|-0-0-0--0-0-0-|
G|-0-0-0--0-0-0-|-0-0-0--0-0-0-|-0-0-0--0-0-0-|-0-0-0--0-0-0-|
C|-0-0-0--0-0-0-|-0-0-0--0-0-0-|-0-0-0--0-0-0-|-0-0-0--0-0-0-|
   . .    . .     . .    . .     . .    . .     . .    . .   

D|--------------|--------------|--------------|--------------|
A|--------------|--------------|--------------|--------------|
F|--------------|--------------|--------------|--------------|
C|-2-2-2--2-2-2-|-2-2-2--2-2-2-|-2-2-2--2-2-2-|-2-2-2--2-2-2-|
G|-2-2-2--2-2-2-|-2-2-2--2-2-2-|-2-2-2--2-2-2-|-2-2-2--2-2-2-|
C|-2-2-2--2-2-2-|-2-2-2--2-2-2-|-2-2-2--2-2-2-|-2-2-2--2-2-2-|
   . .    . .     . .    . .     . .    . .     . .    . .



TRACK 4: WAKE UP (MAKE A MOVE)



Intro - Part 1
e:---------------:
b:-8-11-8-11-8^--:
g:---------------:        Guitar 1 does this while violins play intro riff
d:---------------:
a:---------------:
D:---------------:

Intro - Part 2
Both Guitars           Work out the rythm yourself

e:----------------------------------------------:
b:----------------------------------------------:
g:-----5----------------------------------------: Repeat as many times needed
d:-10/-5--x8--6------1-1-1-1-1-1-1-1-1-1-1-1/3--:
a:-10/-3------6--x8--1-1-1-1-1-1-1-1-1-1-1-1/3--:
D:-10/--------6------1-1-1-1-1-1-1-1-1-1-1-1/3--:

Verse - Both Guitars

"Are we lost or do we know..."

e:-----------------------------:
b:-----------------------------:  Repeat as many times needed
g:-5---------------------------:  
d:-5--x6--1------5------8------:  Work out the rythm yourself
a:-3------1--x6--5--x6--8--x6--:
D:--------1------5------8------:

Pre-Chorus - Both Guitars

"Cause everyday where getting older..."

e:-------------------------------------------------:
b:-------------------------------------------------:
g:-5-5-5-5--5~-------------------------------------:
d:-5-5-5-5--5~-1-1-1-1--1~-5-5-5-5--5~-8-8-8-8--8~-:
a:-3-3-3-3--3~-1-1-1-1--1~-5-5-5-5--5~-8-8-8-8--8~-:
D:-------------1-1-1-1--1~-5-5-5-5--5~-8-8-8-8--8~-:

Pre-Chorus - Guitar 2

e:------------------:
b:-8-11-8-11-8^-----:
g:------------------:
d:--------------10/-:
a:--------------10/-:
D:--------------10/-:

Chorus - Both Guitars

"Wake Up, Wake Up, Wake Up..."
e:------------------------------------------:
b:------------------------------------------:
g:-5----------------------------------------: 
d:-5--x8--6------1-1-1-1-1-1-1-1-1-1-1-1/3--:    x 2
a:-3------6--x8--1-1-1-1-1-1-1-1-1-1-1-1/3--:
D:--------6------1-1-1-1-1-1-1-1-1-1-1-1/3--:

Bridge - Both Guitars
                          "Its not enough..."
e:--------------         ------------------
b:--------------         ------------------
g:-5-5-5-5------         --5-5-------------
d:-5-5-5-5--x4--   then  --5-5-6-3-8--x 4--
a:-3-3-3-3------         --3-3-6-3-8-------
D:--------------         ------6-3-8-------

Sort of Solo

e:------------13^^^^^--------:                   e:---------------:
b:-1///13^-------------------:                   b:---------------:
g:---------------------------:   Break           g:-5---------5~~-:
d:---------------------------:                   d:-5-6-8-6-8-5~~-:
a:---------------------------:                   a:-3-6-8-6-8-3~~-:
D:---------------------------:                   D:---6-8-6-8-----:

Repeat Chorus till the end



TRACK 5: BURN BURN


Intro - Guitar 1 [Clean Tone]
|---------------------------|-3*-|
|---------------------------|-3*-|
|-2-2------5-5------5---5/7-|-3*-|
|-2-2-3-3--5-5-0-0--5---5/7-|-3*-|
|-0-0-3-3--3-3-0-0--3-0-3/5-|-3*-|
|-----3-3------0-0----0-----|-3*-|

Chorus - Guitar 1+2 [Distortion] ["Burn Burn the station.."]
|---------------------------|-------------|
|---------------------------|-------------|
|-2-2------5-5------5---5/7-|-------------|
|-2-2-3-3--5-5-0-0--5---5/7-|-3*-3*-3*-3*-|
|-0-0-3-3--3-3-0-0--3-0-3/5-|-3*-3*-3*-3*-|
|-----3-3------0-0----0-----|-3*-3*-3*-3*-|

Verse - Guitar 1 ["Where do I begin.."]
|------------------|---------|
|------------------|---------|
|-2-2------5-5-----|-5---5/7-|
|-2-2-3-3--5-5-0-0-|-5---5/7-|
|-0-0-3-3--3-3-0-0-|-3-0-3/5-|
|-----3-3------0-0-|---0-----|

Verse - Guitar 2 ["But do you think.."]
|-----------------|
|-----------------|
|-14-14--14-14-14-|
|--x--x---x--x--x-|
|-12-12--12-12-12-|
|-----------------|

Chorus

Verse 2 - Guitar 1 [Clean Tone] ["But do you think.."]
|----------------------------------------------------|
|---10-------------10---10--------8---8--------8---8-|
|-9--------------9----9---------9---9--------9---9---|
|----------------------------------------------------|
|----------------------------------------------------|
|----------------------------------------------------|

Verse 2 - Guitar 2 ["But do you think.."]
|-----------------------------------------------------------------------------|
|-----------------------------------------------------------------------------|
|-----------------------------------------------------------------------------|
|-----------------------------------------------------------------------------|
|-0-0-0-0-0-0-0-0-0-0-0-0-0-0-0-0-0-0-0-0-0-0-0-0-0-0-0-0-0-0-0-0-0-0-0-0-0-0-|
|-----------------------------------------------------------------------------|

Bridge - Guitar 1 ["Yeah!.."]
|-----------------------------------------------------------------|
|-----------------------------------------------------------------|
|---------------------------------7-7-7-5-5-5-7-7-7-5-5-5-7-7-5-5-|
|-7-7-7-5-5-5-7-7-7-5-5-5-7-7-5-5---------------------------------|
|-----------------------------------------------------------------|
|-----------------------------------------------------------------|

|------------------------------------------------------------------|
|-5-5-5-8-8-8-5-5-5-8-8-8-5-5-8-8--8-8-8-5-5-5-8-8-8-5-5-5-8-8-5-5-|
|------------------------------------------------------------------|
|------------------------------------------------------------------|
|------------------------------------------------------------------|
|------------------------------------------------------------------|

["Hey!, Hey!, Hey!"]
|-----------------|
|-----------------|
|-9tp-7tp-5tp-4tp-|
|-x---x---x---x---|
|-7tp-5tp-3tp-2pt-|
|-----------------|

Bridge - Guitar 2 ["Yeah!.."]
|-----------------|
|-----------------|
|-14-14--14-14-14-|
|--x--x---x--x--x-|
|-12-12--12-12-12-|
|-----------------|

["Hey!, Hey!, Hey!"]
|--------------------|
|--------------------|
|--------------------|
|--------------------|
|--------------------|
|-14tp-12tp-10tp-9tp-|
PM .    .    .   .

Fill
|-------------0~-|
|-------------3~-|
|----------5--2~-|
|-7--0--3--5--0~-|
|-7--0--3--3--0~-|
|-7--0--3-----0~-|

Guitar 2 ["Burn burn the truth..."]
|-----------------|
|-----------------|
|-14-14--14-14-14-|
|--x--x---x--x--x-|
|-12-12--12-12-12-|
|-----------------|

Guitar 1 [Clean Tone] ["Burn burn for us..."]
|------------------|---------|
|------------------|---------|
|-2-2------5-5-----|-5---5/7-|
|-2-2-3-3--5-5-0-0-|-5---5/7-|
|-0-0-3-3--3-3-0-0-|-3-0-3/5-|
|-----3-3------0-0-|---0-----|

Guitar 1+2 [Distortion] ["Burn burn for us..."(screaming)]
|------------------|---------|
|------------------|---------|
|-2-2------5-5-----|-5---5/7-|
|-2-2-3-3--5-5-0-0-|-5---5/7-|
|-0-0-3-3--3-3-0-0-|-3-0-3/5-|
|-----3-3------0-0-|---0-----|

Chorus/Outro - Guitar 1+2 [Distortion]
|---------------------------|
|---------------------------|
|-2-2------5-5------5---5/7-|
|-2-2-3-3--5-5-0-0--5---5/7-|
|-0-0-3-3--3-3-0-0--3-0-3/5-|
|-----3-3------0-0----0-----|

Fill
|-------------0~-|
|-------------3~-|
|----------5--2~-|
|-7--0--3--5--0~-|
|-7--0--3--3--0~-|
|-7--0--3-----0~-|



TRACK 6: I DON'T KNOW



Intro (Lead): 
|-------------------------------|
|-------------------0---5---0---|
|-----6------6------------------|
|---6------6------6---6---6---6-|
|-4-----0------0----------------|
|-------------------------------|

|----------------------------------|
|-------------------0--------------|
|-----6------6-----------6/9\6--6--|
|---6------6------6---6--6/9\6--6--|
|-4-----0------0-------------------|
|----------------------------------|

|-------------------------------|
|-------------------0---5---0---|
|-----6------6------------------|
|---6------6------6---6---6---6-|
|-4-----0------0----------------|
|-------------------------------|

|------------------------------|
|-------------------0----5-5-5-|
|-----6------6-----------6-6-6-|
|---6------6------6---6--6-6-6-|
|-4-----0------0---------4-4-4-|
|------------------------------|




Verse (Lead): This is just the Intro played again.
Play this a few times
|-------------------------------|
|-------------------0---5---0---|
|-----6------6------------------|
|---6------6------6---6---6---6-|
|-4-----0------0----------------|
|-------------------------------|

|----------------------------------|
|-------------------0--------------|
|-----6------6-----------6/9\6--6--|
|---6------6------6---6--6/9\6--6--|
|-4-----0------0-------------------|
|----------------------------------|

|-------------------------------|
|-------------------0---5---0---|
|-----6------6------------------|
|---6------6------6---6---6---6-|
|-4-----0------0----------------|
|-------------------------------|

|------------------------------|
|-------------------0----5-5-5-|
|-----6------6-----------6-6-6-|
|---6------6------6---6--6-6-6-|
|-4-----0------0---------4-4-4-|
|------------------------------|




Pre-Chorus (Rhythm):
|------------------------------|
|------------------------------|
|------------------------------|
|-4---7---2---7---4------------|
|-4---7---2---7---4------------|
|-4---7---2---7---4------------|

|------------------------------|
|------------------------------|
|------------------------------|
|-4---7---9---7---2------------|
|-4---7---9---7---2------------|
|-4---7---9---7---2------------|

Pre-Chorus (Lead):
|------------------------------|
|------------------------------|
|-6---9---4---9---6------------|
|-6---9---4---9---6------------|
|-4---7---2---7---4------------|
|------------------------------|

|------------------------------|
|------------------------------|
|-6---9---11--9---4------------|
|-6---9---11--9---4------------|
|-4---7---9---7---2------------|
|------------------------------|

Wait until the very end of the Pre-Chorus
and play this:
|--------------------|
|--------------------|
|--------------------|
|-2-2-2--------------|
|-2-2-2--------------|
|-2-2-2--------------|
PM. . .




Chorus (Rhythm):
|----------------------------------------------------------------|
|----------------------------------------------------------------|
|---------------------------------6--6-6-6-6-6-6--4--4-4-4-4-4-4-|
|-7--7-7-7-7-7-7--4--4-4-4-4-4-4--6--6-6-6-6-6-6--4--4-4-4-4-4-4-|
|-7--7-7-7-7-7-7--4--4-4-4-4-4-4--4--4-4-4-4-4-4--2--2-2-2-2-2-2-|
|-7--7-7-7-7-7-7--4--4-4-4-4-4-4---------------------------------|
PM       . .   .         . .   .         . .   .         . .   .

Chorus (Lead): I've tried to match it to the above part
|----------------------------------------------0-------------|
|--------5p0-----------5p0---------------9-7---7-----7-----7-|
|--------------------------------------------9-----9-----9---|
|------------------------------------------------------------|
|------------------------------------------------------------|
|------------------------------------------------------------|

|----------------------------------------------0-----------7-|
|--------5p0-----------5p0---------------9-7---7-----7-------|
|--------------------------------------------9-----9-----9---|
|------------------------------------------------------------|
|------------------------------------------------------------|
|------------------------------------------------------------|


Chorus End (Rhythm):
|------------------------------------------------------------|
|------------------------------------------------------------|
|--------------------------------6---------------6-----------|
|-7--------------4---------------6---------------6-----------|
|-7--------------4---------------4---------------4-----------|
|-7--------------4-------------------------------------------|

Chorus End (Lead):
|--------------7-------------------------------4-------------|
|------5------------------------------5----------------------|
|-/6--------6---------------------6---------6----------------|
|------------------------------------------------------------|
|------------------------------------------------------------|
|------------------------------------------------------------|



Then a short fil part with just the Intro


Then play a Verse


The Pre-Chorus


And another Chorus


Then the Interlude:

Interlude Pt.1 (Lead): I think some of the notes are harmonics,
but this sounds fine
|--------12-------------7--------|
|-----12-------------------------|
|-8h9---------4--4h6--9----------|
|--------------------------------|
|--------------------------------|
|--------------------------------|

|-----------12-----------------7--------|
|--------12----12-----------------------|
|-/8-8h9----------9\4--4h6--9-----9--6\-|
|---------------------------------------|
|---------------------------------------|
|---------------------------------------|



Interlude Pt.2 (Rhythm):
|----------------------------------------------------------------|
|----------------------------------------------------------------|
|----------------------------------------------------------------|
|-4-4-4-4-4-4-4-4---4-4-4-4-4-4-4-7-7-7-7-7-7-7-7---7-7-7-7-7-7-7|
|-4-4-4-4-4-4-4-4---4-4-4-4-4-4-4-7-7-7-7-7-7-7-7---7-7-7-7-7-7-7|
|-4-4-4-4-4-4-4-4---4-4-4-4-4-4-4-7-7-7-7-7-7-7-7---7-7-7-7-7-7-7|
PM. . . . .   .     . . . . . . . . . . . .   .     . . . . . . . 

|----------------------------------------------------------------|
|----------------------------------------------------------------|
|----------------------------------------------------------------|
|-4-4-4-4-4-4-4-4---4-4-4-4-4-4-4-7-7-7-7-7-7-7-6---6-6-6-6-6-6-6|
|-4-4-4-4-4-4-4-4---4-4-4-4-4-4-4-7-7-7-7-7-7-7-6---6-6-6-6-6-6-6|
|-4-4-4-4-4-4-4-4---4-4-4-4-4-4-4-7-7-7-7-7-7-7-6---6-6-6-6-6-6-6|
PM. . . . .   .     . . . . . . . . . . . .   .     . . . . . . . 

Interlude Pt.2 (Lead): This may look really hard, but if you can
find the right finger positions for it, changing the 
chords is easy.
Al Palm Muted.
|--------------------------------------------------------|
|-----12-------12-------12-----10--------10--------10----|
|----9--9-----9--9-----9------9--9------9--9------9------|
|--11----11-11----11-11-----11----11--11----11--11-------|
|-9--------9--------9-----12--------12--------12---------|
|--------------------------------------------------------|

|--------------------------------------------------------|
|-----12-------12-------12-----10--------9--------9------|
|----9--9-----9--9-----9------9--9------9-9------9-------|
|--11----11-11----11-11-----11----11--11---11--11--------|
|-9--------9--------9-----12--------11-------11----------|
|--------------------------------------------------------|


Interlude Pt.3 (Rhythm): This is just the chorus played
on its own
|----------------------------------------------------------------|
|----------------------------------------------------------------|
|---------------------------------6--6-6-6-6-6-6--4--4-4-4-4-4-4-|
|-7--7-7-7-7-7-7--4--4-4-4-4-4-4--6--6-6-6-6-6-6--4--4-4-4-4-4-4-|
|-7--7-7-7-7-7-7--4--4-4-4-4-4-4--4--4-4-4-4-4-4--2--2-2-2-2-2-2-|
|-7--7-7-7-7-7-7--4--4-4-4-4-4-4---------------------------------|
PM       . .   .         . .   .         . .   .         . .   .




Then you play a full Chorus




Solo (Lead): Sorry about the missing bit. 
If you can help just post a comment. Thnx.
(PH) is Pinch Harmonic
|------------------------------------|
|-/4--4-4--5-7b9r7---4--4-4--5-7b9r7-|
|------------------------------------|
|------------------------------------|
|------------------------------------|
|------------------------------------|
 
|-----------(PH)----------------------|
|-0--0-0-2-4b5r4--0-4-5-4-5-4-0-2-2-2-|
|-------------------------------------|
|-------------------------------------|
|-------------------------------------|
|-------------------------------------|



|-------------------------------/12--11------------------------------|
|-/5-4-0-4-2-0-2---/5-4-0-4-2-0---------12----12----12---------00000-|
|------------------------------------------11----11----11--11-\------|
|--------------------------------------------------------------------|
|--------------------------------------------------------------------|
|--------------------------------------------------------------------|
PM         . .          .   . .      


this is as close as i could get to it:
|-------4--/4p0h4/7--/7p4h7/12--/12--12/16-|
|-/5p2h5---------------------------12------|
|------------------------------------------|
|------------------------------------------|
|------------------------------------------|
|------------------------------------------|

|---------------19---------------------------|
|-19------------------------19----------19-\-|
|------18-16-18----18-16-18----18-16-18------|
|--------------------------------------------|
|--------------------------------------------|
|--------------------------------------------|



|-12p9-9-9-12p9-9-9-12p9-9-9-12p9-9-9-14p9-9-9-14p9-9-9-14p9-9-9-14p9-9-9-|
|-------------------------------------------------------------------------|
|-------------------------------------------------------------------------|
|-------------------------------------------------------------------------|
|-------------------------------------------------------------------------|
|-------------------------------------------------------------------------|

|-19p16-16-16-19p16-16-16-19p16-16-16-19p16-16-16-|
|-------------------------------------------------|
|-------------------------------------------------|
|-------------------------------------------------|
|-------------------------------------------------|
|-------------------------------------------------|

|-19p16-16-16-19p16-16-16-21p16-16-16-21p16-16-16-|
|-------------------------------------------------|
|-------------------------------------------------|
|-------------------------------------------------|
|-------------------------------------------------|
|-------------------------------------------------|

Solo (Rhythm):
|----------------------------------------------------------------|
|----------------------------------------------------------------|
|---------------------------------6--6-6-6-6-6-6--4--4-4-4-4-4-4-|
|-7--7-7-7-7-7-7--4--4-4-4-4-4-4--6--6-6-6-6-6-6--4--4-4-4-4-4-4-|
|-7--7-7-7-7-7-7--4--4-4-4-4-4-4--4--4-4-4-4-4-4--2--2-2-2-2-2-2-|
|-7--7-7-7-7-7-7--4--4-4-4-4-4-4---------------------------------|
PM       . .   .         . .   .         . .   .         . .   .





Song End (Lead):
|-/17---17-17------/14---14-14----------0-----|
|--------------------------------------5------|
|-------------------------------------6-------|
|------------------------------------6--------|
|-----------------------------------0---------|
|---------------------------------------------|

Song End (Rhythm):
|------------------------------------|
|------------------------------------|
|------------------------------------|
|-7--7-7----------4--4-4-------------|
|-7--7-7----------4--4-4-------------|
|-7--7-7----------4--4-4-------------|




TRACK 7: HELLO AGAIN


Intro 

|-----7--7------------------------7--7---------0--0-|--0----0-|
|------------------10-10----------------------------|----10---|
|---7--------7---7---------7---6---------6---7------|---------|
|-9--------9---9---------9---9---------9---9--------|---------|
|---------------------------------------------------|---------|
|---------------------------------------------------|---------|



Verse (Rhythm): Strum these notes once and let them ring
|--------------------------------------|
|--------------------------------------|
|-4-------------------4----------------|
|-4----2----4----0----4----2----4----7-|
|-2----2----4----0----2----2----4----7-|
|------2----4----0---------2----4----7-|

Verse (Lead): This is just the intro played again
|-----7--7------------------------7--7---------0--0-|--0----0-|
|------------------10-10----------------------------|----10---|
|---7--------7---7---------7---6---------6---7------|---------|
|-9--------9---9---------9---9---------9---9--------|---------|
|---------------------------------------------------|---------|
|---------------------------------------------------|---------|



Pre-Chorus (Rhythm): Not the exact amount
|-------------------------------|
|-------------------------------|
|-------------------------------|
|-5-5-5-5-5-5-5-5-7-7-7-7-7-7-7-|
|-5-5-5-5-5-5-5-5-7-7-7-7-7-7-7-|
|-5-5-5-5-5-5-5-5-7-7-7-7-7-7-7-|
PM. . . . . . . . . . . . . . . 

Slowly release the PM on this bit then mute the very last 9
after it is played
|-------------------------------------------|
|-------------------------------------------|
|-------------------------------------------|
|-5-5-5-5-5-5-5-5-5-5-5-5-5-5-5-5-9~~~~-9-9-|
|-5-5-5-5-5-5-5-5-5-5-5-5-5-5-5-5-9~~~~-9-9-|
|-5-5-5-5-5-5-5-5-5-5-5-5-5-5-5-5-9~~~~-9-9-|
PM. . . . . . . . . . 

Pre-Chorus (Lead): This is the intro riff again. Just keep playing
this right up to the chorus
|-----7--7------------------------7--7---------0--0-|--0----0-|
|------------------10-10----------------------------|----10---|
|---7--------7---7---------7---6---------6---7------|---------|
|-9--------9---9---------9---9---------9---9--------|---------|
|---------------------------------------------------|---------|
|---------------------------------------------------|---------|



Chorus (Rhythm): Not the exact amount
|---------------------------------------------------------|
|---------------------------------------------------------|
|---------------------------------------------------------|
|-9-9-9-9-9-9-9-0-0-0-0-0-0-0-5-5-5-5-5-5-5-5-5-5-5-5-5-5-|
|-9-9-9-9-9-9-9-0-0-0-0-0-0-0-5-5-5-5-5-5-5-5-5-5-5-5-5-5-|
|-9-9-9-9-9-9-9-0-0-0-0-0-0-0-5-5-5-5-5-5-5-5-5-5-5-5-5-5-|

|---------------------------------------------------------|
|---------------------------------------------------------|
|---------------------------------------------------------|
|-9-9-9-9-9-9-9-0-0-0-0-0-0-0-5-5-5-5-5-5-5-7-7-7-7-7-7-7-|
|-9-9-9-9-9-9-9-0-0-0-0-0-0-0-5-5-5-5-5-5-5-7-7-7-7-7-7-7-|
|-9-9-9-9-9-9-9-0-0-0-0-0-0-0-5-5-5-5-5-5-5-7-7-7-7-7-7-7-|

Chorus (Lead): I dont know what is played by here
but this sounds ok. I've tried to match it with
the rhythm pattern above so its easier to tell 
when to change
|---------------------------------------------------------|
|---------------------------------------------------------|
|-16-16-16-16-16-16-16-16-16--12-12-12-12-12-12-12-12-12--|
|-x--x--x--x--x--x--x--x--x---x--x--x--x--x--x--x--x--x---|
|-14-14-14-14-14-14-14-14-14--10-10-10-10-10-10-10-10-10--|
|---------------------------------------------------------|

|---------------------------------------------------------|
|---------------------------------------------------------|
|-16-16-16-16-16-16-16-16-16--12-12-12-12-12-14-14-14-14--|
|-x--x--x--x--x--x--x--x--x---x--x--x--x--x--x--x--x--x---|
|-14-14-14-14-14-14-14-14-14--10-10-10-10-10-12-12-12-12--|
|---------------------------------------------------------|


Then play the Verse again for the normal length


Then play the Pre-Chorus again


Then play the Chorus for the normal length



Interlude Pt.1 (Rhythm): I have no idea what chrod is played
on this part, but this sounds ok if you play it fast.
Strum each chord as an upstroke once.
|-7-----|
|--10---|
|----7--| x 4
|-----9-|
|-------|
|-------|

Interlude Pt.1 (Lead):
|-------------------------------------------------------|
|-------------------------------------------------------|
|---7-------7--9-9/11----------9-----------7--11--11-12-|
|-9-------9----------------7-9---9-7-----9--------------|
|-------------------------------------------------------|
|-------------------------------------------------------|

|----------------------------------------------------|
|----------------------------------------------------|
|---7-------7--9-9/11----------9-----------12--11----|
|-9-------9----------------7-9---9-7-----9--------12-|
|------------------------------------7---------------|
|----------------------------------------------------|



Interlude Pt.2 (Rhythm):
|-----------------------------------------------------------------|
|-----------------------------------------------------------------|
|-----------------------------------------------------------------|
|-9-9-9-9-9-9-9-9-2-2-2-2-2-2-2-2-4-4-4-4-4-4-4-4-0-0-0-0-0-0-0-0-|
|-9-9-9-9-9-9-9-9-2-2-2-2-2-2-2-2-4-4-4-4-4-4-4-4-0-0-0-0-0-0-0-0-|
|-9-9-9-9-9-9-9-9-2-2-2-2-2-2-2-2-4-4-4-4-4-4-4-4-0-0-0-0-0-0-0-0-|

|-----------------------------------------------------------------|
|-----------------------------------------------------------------|
|-----------------------------------------------------------------|
|-9-9-9-9-9-9-9-9-2-2-2-2-2-2-2-2-4-4-4-4-4-4-4-4-7-7-7-7-7-7-7-7-|
|-9-9-9-9-9-9-9-9-2-2-2-2-2-2-2-2-4-4-4-4-4-4-4-4-7-7-7-7-7-7-7-7-|
|-9-9-9-9-9-9-9-9-2-2-2-2-2-2-2-2-4-4-4-4-4-4-4-4-7-7-7-7-7-7-7-7-|

|-----------------------------------------------------------------|
|-----------------------------------------------------------------|
|-----------------------------------------------------------------|
|-9-9-9-9-9-9-9-9-2-2-2-2-2-2-2-2-5-5-5-5-5-5-5-5-5-5-5-5-5-5-5-5-|
|-9-9-9-9-9-9-9-9-2-2-2-2-2-2-2-2-5-5-5-5-5-5-5-5-5-5-5-5-5-5-5-5-|
|-9-9-9-9-9-9-9-9-2-2-2-2-2-2-2-2-5-5-5-5-5-5-5-5-5-5-5-5-5-5-5-5-|

Interlude Pt.2 (Lead): I think this is whats played. It's really
hard to hear the lead on this song
|-----------------------------------------------------------------|
|-----------------------------------------------------------------|
|-4-4-4-4-4-4-4-4-4-4-4-4-4-4-4-4-4-4-4-4-4-4-4-4-4-4-4-4-4-4-4-4-|
|-4-4-4-4-4-4-4-4-4-4-4-4-4-4-4-4-4-4-4-4-4-4-4-4-4-4-4-4-4-4-4-4-|
|-2-2-2-2-2-2-2-2-2-2-2-2-2-2-2-2-2-2-2-2-2-2-2-2-2-2-2-2-2-2-2-2-|
|-----------------------------------------------------------------|

|-----------------------------------------------------------------|
|-----------------------------------------------------------------|
|-4-4-4-4-4-4-4-4-4-4-4-4-4-4-4-4-4-4-4-4-4-4-4-4-2-2-2-2-2-2-2-2-|
|-4-4-4-4-4-4-4-4-4-4-4-4-4-4-4-4-4-4-4-4-4-4-4-4-2-2-2-2-2-2-2-2-|
|-2-2-2-2-2-2-2-2-2-2-2-2-2-2-2-2-2-2-2-2-2-2-2-2-0-0-0-0-0-0-0-0-|
|-----------------------------------------------------------------|

|-----------------------------------------------------------------|
|-----------------------------------------------------------------|
|-4-4-4-4-4-4-4-4-4-4-4-4-4-4-4-2-2-2-2-2-2-2-2-2-2-2-2-2-2-2-2-2-|
|-4-4-4-4-4-4-4-4-4-4-4-4-4-4-4-2-2-2-2-2-2-2-2-2-2-2-2-2-2-2-2-2-|
|-2-2-2-2-2-2-2-2-2-2-2-2-2-2-2-0-0-0-0-0-0-0-0-0-0-0-0-0-0-0-0-0-|
|-----------------------------------------------------------------|

On the last bar of Interlude Pt.2, its just 1 guitar playing this:
|-------------------------------------------------|
|-------------------------------------------------|
|-14-14-14-14-14-14-14-14-14-14-14-14-14-14-14-14-|
|-x--x--x--x--x--x--x--x--x--x--x--x--x--x--x--x--|
|-12-12-12-12-12-12-12-12-12-12-12-12-12-12-12-12-|
|-------------------------------------------------|



The timing is pretty strange on this part, the 2nd guitar comes in
(after the 1st guitar stops playing on its own) half way through 
the chorus, if you get what i mean. This is what is played:

Rhythm: Not the exact amount.
I'm pretty sure both guitars play this bit
|-----------------------------------------------------------|
|-----------------------------------------------------------|
|-----------------------------------------------------------|
|-0-0-0-0-0-0-0-0-0-5-5-5-5-5-5-5-5-5-5-5-5-5-5-5-5-5-5-5-5-|
|-0-0-0-0-0-0-0-0-0-5-5-5-5-5-5-5-5-5-5-5-5-5-5-5-5-5-5-5-5-|
|-0-0-0-0-0-0-0-0-0-5-5-5-5-5-5-5-5-5-5-5-5-5-5-5-5-5-5-5-5-|



Then play the Chorus with both guitars



On the last time the chorus is played, 
the Lead guitar plays this a load of times:
|-17----17----17-------17----|
|----17----17----17p19----17-|
|----------------------------|
|----------------------------|
|----------------------------|
|----------------------------|

Then finish with the Intro a few times and your done.




TRACK 8: GOODBYE TONIGHT



(. = play then mute immediately after eg. with palm)
(~ = ret ring)

VERSE:
Guitar 1:								       
E|--------------------------------|---------------------------------------|
B|------------7------------7------|-------------7-------------7-----------|
G|----7-----7---7---7--------7----|-----7---------7---7---------7---------|
D|------5-------------5---5---(5)-|-------5---5---------5---5----(5)------|
A|-7------7-------7-----7---------|--7------7-------7-----7---------------|
D|--------------------------------|---------------------------------------|

E|--------------------------------|---------------------------------------|
B|------------7------------7------|-------------7-------------7-----------|
G|----7-----7---7---7--------7----|-----7---------7---7---------7---------|
D|------5-------------5---5---(5)-|-------5---5---------5---5----(5)------|
A|-7------7-------7-----7---------|--7------7-------7-----7---------------|
D|--------------------------------|---------------------------------------|

E|--------------------------------|---------------------------------------|
B|------------7------------7------|-------------7-------------8-----------|
G|----7-----7---7---7--------7----|-----7---------7---7---------7---------|
D|------5-------------5---5---(5)-|-------5---5---------5---5-------------|
A|-7------7-------7-----7---------|--7------7-------7-----7---------------|
D|--------------------------------|---------------------------------------|

E|--------------------------------|---------------------------------------|
B|------------7------------7------|-------------7-------------8~----------|
G|----7-----7---7---7--------7----|-----7---------7---7---------7~--------|
D|------5-------------5---5---(5)-|-------5---5---------5---5-------------|
A|-7------7-------7-----7---------|--7------7-------7-----7---------------|
D|--------------------------------|---------------------------------------|

Guitar 2: Cos it be difficult to harmonise with Guitar 1, Guitar 2 could play
	  the background keyboard parts (transcribed below)

	       x2	      x2   (On 4th repeat hold the last note)    x4
E|--------------|--------------|------------------------------------------|
B|--------------|--------------|------------------------------------------|
G|--------------|----------16--|--------------16--19----------------------|
D|--16--17--12--|--16--17------|--12--16--17------------------------------|
A|--------------|--------------|------------------------------------------|
D|--------------|--------------|------------------------------------------|



PRE-CHORUS:								 x3
E|--0.---0.---0-0.---7.---7.---7-7-7-7.---0.---0.---0--0.---10-10-10-10.--|
B|--8.---8.---8-8.---8.---8.---8-8-8-8.---12.--12.--12-12.--12-12-12-12.--|
G|--9.---9.---9-9.---9.---9.---9-9-9-9.---11.--11.--11-11.--11-11-11-11.--|
D|--9.---9.---9-9.---9.---9.---9-9-9-9.---9.---9.---9--9.---9--9--9--9.---|
A|------------------------------------------------------------------------|
D|------------------------------------------------------------------------|

E|--0.---0.---0-0.---7.---7.---7-7-7-7.---0.--0.--0.--0.--10.-10.-10.-----|
B|--8.---8.---8-8.---8.---8.---8-8-8-8.---12.-12.-12.-12.-12.-12.-12.-----|
G|--9.---9.---9-9.---9.---9.---9-9-9-9.---11.-11.-11.-11.-11.-11.-11.-----|
D|--9.---9.---9-9.---9.---9.---9-9-9-9.---9.--9.--9.--9.--9.--9.--9.------|
A|------------------------------------------------------------------------|
D|------------------------------------------------------------------------|


CHORUS: Both guitars have distortion on.
Guitar 2:								 x2
E|------------------------------------------------------------------------|
B|------------------------------------------------------------------------|
G|-5--5---5-5-5--7--7--7-7-7-7--9--9---9-9-9--12--12--12-12-12-12---------|
D|-5--5---5-5-5--7--7--7-7-7-7--9--9---9-9-9--12--12--12-12-12-12---------|
A|-3--3---3-3-3--5--5--5-5-5-5--7--7---7-7-7--10--10--10-10-10-10---------|
D|-5--5---5-5-5--7--7--7-7-7-7--9--9---9-9-9--12--12--12-12-12-12---------|
[ Tab from: http://www.guitartabs.cc/tabs/l/lostprophets/start_something_tab_ver_3.html ]
Guitar 1: plays something like this					 x2
E|------------------------------------------------------------------------|
B|-10-------8-------10-------7-------10-------8-------10-------8-7--------|
G|----7---7---7---7----7---7---7---7----7---7---7---7----7---7-----7------|
D|------9-------9--------9-------9--------9-------9--------9---------9----|
A|------------------------------------------------------------------------|
D|------------------------------------------------------------------------|

Guitar 2:								 x2
E|------------------------------------------------------------------------|
B|------------------------------------------------------------------------|
G|-5.--5.---5-5-5.--7--7--7-7-7-7--9.--9.---9-9-9---12---12--12-12-12-12--|
D|-5.--5.---5-5-5.--7~-7--7-7-7-7--9.--9.---9-9-9.--12~--12--12-12-12-12--|
A|-3.--3.---3-3-3.--5~-5--5-5-5-5--7.--7.---7-7-7.--10~--10--10-10-10-10--|
D|-5.--5.---5-5-5.--7~-7--7-7-7-7--9.--9.---9-9-9.--12~--12--12-12-12-12--|

Guitar 1: (not exact but sounds pretty much right)
E|---------------------------------------------10--10--10---15--14--------|
B|-7-8-7-8-7-8-7--(7)--10-7--7-8-7-8-7-8----/12--12--12---12--12--12-15-12|
G|------------------------------------------------------------------------|
D|------------------------------------------------------------------------|
A|------------------------------------------------------------------------|
D|------------------------------------------------------------------------|

E|---------------------------------------------10--10--10---15--14--------|
B|-7-8-7-8-7-8-7--(7)--10-7--7-8-7-8-7-8----/12--12--12---12--12--12-15-12|
G|------------------------------------------------------------------------|
D|------------------------------------------------------------------------|
A|------------------------------------------------------------------------|
D|------------------------------------------------------------------------|


(1st) CHORUS ENDING:
This part is just Guitar 1 clean.  
E|----15~----14~-------------15~----14~-----------------------------------|
B|-12-----12-----12--15~--12-----12-----12--15~---------------------------|
G|------------------------------------------------------------------------|
D|------------------------------------------------------------------------|
A|------------------------------------------------------------------------|
D|------------------------------------------------------------------------|

REPEAT VERSE, PRE-CHORUS, CHORUS

BRIDGE:
Guitar 2:
E|------------------------------------------------------------------------|
B|------------------------------------------------------------------------|
G|-12.--12.--12-12.--12.--12.--12-12-12-12---9.--9.--9-9.--9.--9.--9-9-9-9|
D|-12.--12.--12-12.--12.--12.--12-12-12-12---9.--9.--9-9.--9.--9.--9-9-9-9|
A|-10.--10.--10-10.--10.--10.--10-10-10-10---7.--7.--7-7.--7.--7.--7-7-7-7|
D|-12.--12.--12-12.--12.--12.--12-12-12-12---9.--9.--9-9.--9.--9.--9-9-9-9|

E|------------------------------------------------------------------------|
B|------------------------------------------------------------------------|
G|---7.--7.--7-7.--7.--7.--7-7-7-7--------------------5-5-5-5--5-5--------|
D|---7.--7.--7-7.--7.--7.--7-7-7-7------------5-5-5-5-5-5-5-5--5-5--------|
A|---5.--5.--5-5.--5.--5.--5-5-5-5----3-3-3-3-3-3-3-3-3-3-3-3--3-3--------|
D|---7.--7.--7-7.--7.--7.--7-7-7-7----5-5-5-5-5-5-5-5-5-5-5-5--5-5--------|

Guitar 1: with Phaser and distortion on. 
	 (these sound pretty gd, if the 1st chord is a bit iffy, then mute
	  the G string)
E|---15~~~------12~~~------10~~~------------------------------------------|
B|---17~--------12~--------12~--------------------------------------------|
G|---16~---------9~--------11~--------------------------------------------|
D|---14~---------9~---------9~--------------------------------------------|
A|------------------------------------------------------------------------|
D|------------------------------------------------------------------------|

Keyboard Overlay: (for Guitar) The push-offs gradually change to hammer-ons. 
E|------------------------------------------------------------------------|
B|------------------------------------------------------------------------|
G|--12p11----12p11---12p11---12p11---12p11---11h12---11h12---11h12---11h12|
D|-12-------12------12------12------12------12------12------12------12----|
A|------------------------------------------------------------------------|
D|------------------------------------------------------------------------|


CHORUS:
Guitar 2:								 x4
E|------------------------------------------------------------------------|
B|------------------------------------------------------------------------|
G|-5--5---5-5-5--7--7--7-7-7-7--9--9---9-9-9--12--12--12-12-12-12---------|
D|-5--5---5-5-5--7--7--7-7-7-7--9--9---9-9-9--12--12--12-12-12-12---------|
A|-3--3---3-3-3--5--5--5-5-5-5--7--7---7-7-7--10--10--10-10-10-10---------|
D|-5--5---5-5-5--7--7--7-7-7-7--9--9---9-9-9--12--12--12-12-12-12---------|

Guitar 1: plays something like this					 x4
E|------------------------------------------------------------------------|
B|-10-------8-------10-------7-------10-------8-------10-------8-7--------|
G|----7---7---7---7----7---7---7---7----7---7---7---7----7---7-----7------|
D|------9-------9--------9-------9--------9-------9--------9---------9----|
A|------------------------------------------------------------------------|
D|------------------------------------------------------------------------|

Guitar 2:								 x2
E|------------------------------------------------------------------------|
B|------------------------------------------------------------------------|
G|-5.--5.---5-5-5.--7--7--7-7-7-7--9.--9.---9-9-9---12---12--12-12-12-12--|
D|-5.--5.---5-5-5.--7~-7--7-7-7-7--9.--9.---9-9-9.--12~--12--12-12-12-12--|
A|-3.--3.---3-3-3.--5~-5--5-5-5-5--7.--7.---7-7-7.--10~--10--10-10-10-10--|
D|-5.--5.---5-5-5.--7~-7--7-7-7-7--9.--9.---9-9-9.--12~--12--12-12-12-12--|

Guitar 1: (not exact but sounds pretty much right)
E|---------------------------------------------10--10--10---15--14--------|
B|-7-8-7-8-7-8-7--(7)--10-7--7-8-7-8-7-8----/12--12--12---12--12--12-15-12|
G|------------------------------------------------------------------------|
D|------------------------------------------------------------------------|
A|------------------------------------------------------------------------|
D|------------------------------------------------------------------------|

E|---------------------------------------------10--10--10---15--14--------|
B|-7-8-7-8-7-8-7--(7)--10-7--7-8-7-8-7-8----/12--12--12---12--12--12-15-12|
G|------------------------------------------------------------------------|
D|------------------------------------------------------------------------|
A|------------------------------------------------------------------------|
D|------------------------------------------------------------------------|

ENDING:
Guitar 1: Distortion and a Uni-vibe/phaser effect on.

E|---15----15----15----15----15----12---12---12---12---12---12---10--10---|
B|-----12----12----12----12----12----12---12---12---12---12---12---7---7--|
G|-12----12----12----12----12----12----9----9----9----9----9----9---9---9-|
D|------------------------------------------------------------------------|
A|------------------------------------------------------------------------|
D|------------------------------------------------------------------------|

E|-10--10--10--10--12--12--12--12--12--12--14~----------------------------|
B|---7---7---7---7---8---8---8---8---8---8--------------------------------|
G|----9---9---9---9---9---9---9---9---9---9-------------------------------|
D|------------------------------------------------------------------------|
A|------------------------------------------------------------------------|
D|------------------------------------------------------------------------|

Guitar 2:
				   x2
E|----------------------------------|-------------------------------------|
B|----------------------------------|-------------------------------------|
G|-5-5-5.---5-5.--5.--5-5.--5-5-5.--|-5-5-5.--5-5-5-5.--5-5-5.--5-5.------|
D|-5-5-5.---5-5.--5.--5-5.--5-5-5.--|-5-5-5.--5-5-5-5.--5-5-5.--5-5.------|
A|-3-3-3.---3-3.--3.--3-3.--3-3-3.--|-3-3-3.--3-3-3-3.--3-3-3.--3-3.------|
D|-5-5-5.---5-5.--5.--5-5.--5-5-5.--|-5-5-5.--5-5-5-5.--5-5-5.--5-5.------|

E|------------------------------------------------------------------------|
B|------------------------------------------------------------------------|
G|-5-5-5.---5-5.--5.--5-5.--5-5-5.---7~-----------------------------------|
D|-5-5-5.---5-5.--5.--5-5.--5-5-5.---7~-----------------------------------|
A|-3-3-3.---3-3.--3.--3-3.--3-3-3.---5~-----------------------------------|
D|-5-5-5.---5-5.--5.--5-5.--5-5-5.---7~-----------------------------------|




TRACK 9: START SOMETHING




Intro:

Rhythm:
|--------------------------------------|
|--------------------------------------|
|--------------------------------------| x2
|-0-0-0-0---0-0------------------------|
|-0-0-0-0---0-0------------------------|
|-0-0-0-0---0-0------------------------|
PM. . . .   . .

|--------------------------------------|
|--------------------------------------|
|--------------------------------------|
|-0-0-0-0---0-8------------------------|
|-0-0-0-0---0-8------------------------|
|-0-0-0-0---0-8------------------------|
PM. . . .   .

|--------------------------------------|
|--------------------------------------|
|--------------------------------------|
|-0-0-0-0---0-0------------------------|
|-0-0-0-0---0-0------------------------|
|-0-0-0-0---0-0------------------------|
PM. . . .   . .

On the second time through the intro, play 
all of the last notes open.



Lead: Not the exact amount because it wont fit,
but u get the idea
|----------------------------------------------------|
|----------------------------------------------------|
|-------------7--7-7-5/7-7-7-7b8-7-7-7b8-7-7-5/7-7-7-| x8
|-0-0-0-0---0-0--0-0-0-0-0-0-0-0-0-0-0-0-0-0-0-0-0-0-|
|-0-0-0-0---0----------------------------------------|
|-0-0-0-0---0----------------------------------------|
PM. . . .   . 


Bridge:

Rhythm:
|--------------------------------------|
|--------------------------------------|
|--------------------------------------|
|-0-0-0-0---0-0------------------------|
|-0-0-0-0---0-0------------------------|
|-0-0-0-0---0-0------------------------|
PM. . . .   . .


Lead:
|----------------------------------------------------|
|----------------------------------------------------|
|-------------7--7-7-5/7-7-7-7b8-7-7-7b8-7-7-5/7-7-7-|
|-0-0-0-0---0-0--0-0-0-0-0-0-0-0-0-0-0-0-0-0-0-0-0-0-|
|-0-0-0-0---0----------------------------------------|
|-0-0-0-0---0----------------------------------------|
PM. . . .   . 

|---------------------------------------------------|
|---------------------------------------------------|
|-7--7-7-5/7-7--7-7-5/7-7-7-7b8-7-7-7b8-7-7-5/7-7-7-|
|-0--0-0-0-0-0--0-0-0-0-0-0-0-0-0-0-0-0-0-0-0-0-0-0-|
|---------------------------------------------------|
|---------------------------------------------------|
Pause right before the verse



Verse:

Rhythm:
|----------------------------------------------------------|
|----------------------------------------------------------|
|-10-10-10-10--10------------------------------------------|
|-10-10-10-10--10-8---8-8-8-8-8---8-8-8-8--8-8---8-8-8-8-8-|
|-8--8--8--8---8--8---8-8-8-8-8---8-8-8-8--8-8---8-8-8-8-8-|
|-----------------8---8-8-8-8-8---8-8-8-8--8-8---8-8-8-8-8-|

|------------------------------------------------------------|
|------------------------------------------------------------|
|-10-10-10-12-12-12------------------------------------------|
|-10-10-10-12-12-12-0---0-0-0-0-0---0-0-0-0--0-0---0-0-0-0-0-|
|-8--8--8--10-10-10-0---0-0-0-0-0---0-0-0-0--0-0---0-0-0-0-0-|
|-------------------0---0-0-0-0-0---0-0-0-0--0-0---0-0-0-0-0-|


Lead: Mute the strings after every line played.
Listen carefully to the song
|-------------------------------|
|-------------------------------|
|-7-7-7-7---7-7---7-7-7-7-7-7-7-| x2
|-0-0-0-0---0-0---0-0-0-0-0-0-0-|
|-------------------------------|
|-------------------------------|

|-------------------------------|
|-------------------------------|
|-9-9-9-9---9-9---9-9-9-9-9-9-9-| x2
|-0-0-0-0---0-0---0-0-0-0-0-0-0-|
|-------------------------------|
|-------------------------------|

|---------------------------------|
|(Same strumming pattern as above)|
|-10-10-10-10-10-10-10-10-10-10---| x2
|-0--0--0--0--0--0--0--0--0--0----|
|---------------------------------|
|---------------------------------|

|---------------------------------|
|(Same strumming pattern as above)|
|-12-12-12-12-12-12-12-12-12-12---| x2
|-0--0--0--0--0--0--0--0--0--0----|
|---------------------------------|
|---------------------------------|
Repeat all of that twice



Pre-Chorus:
Lead:
|----------------------------------------|
|----------------------------------------|
|----------------------------------------|
|----------------------------------------|
|----------------------------------------|
|-0-0-12-0-10-13-0-0-12-0-10-13-0-0-12-0-|

|-------------------------------------------|
|-------------------------------------------|
|-------------------------------------------|
|-------------------------------------------|
|-------------------------------------------|
|-0-0-12-0-10-13-0-0-12-0-10-13-15-15-15-15-|



Chorus:

Rhythm:
Part 1:
|----------------------------------------|
|----------------------------------------|
|----------------------------------------|
|----------------------------------------|
|----------------------------------------|
|-0-0-12-0-10-13-0-0-12-0-10-13-0-0-12-0-|

|-------------------------------------------|
|-------------------------------------------|
|-------------------------------------------|
|-------------------------------------------|
|-------------------------------------------|
|-0-0-12-0-10-13-0-0-12-0-10-13-15-15-15-15-|

Part 2:
|---------------------------------|
|---------------------------------|
|-5-5-5-5-x-5-5-5-x-5-5-5-x-5-5-5-|
|-5-5-5-5-x-5-5-5-x-5-5-5-x-5-5-5-|
|-3-3-3-3-x-3-3-3-x-3-3-3-x-3-3-3-|
|---------------------------------|

|---------------------------------|
|---------------------------------|
|-3-3-3-3-x-3-3-3-x-3-3-3-x-3-3-3-|
|-3-3-3-3-x-3-3-3-x-3-3-3-x-3-3-3-|
|-1-1-1-1-x-1-1-1-x-1-1-1-x-1-1-1-|
|---------------------------------|

Part 3:
|-------------------------------------------------|
|-------------------------------------------------|
|-------------------------------------------------|
|-0-0---0-0---0-0---0-0---1-1---1-1---1-1---1-1---|
|-0-0---0-0---0-0---0-0---1-1---1-1---1-1---1-1---|
|-0-0---0-0---0-0---0-0---1-1---1-1---1-1---1-1---|
PM. .   . .   . .   . .   . .   . .   . .   . . 

Play part 2 again.

Part 4:
|--------------------------------------|
|--------------------------------------|
|--------------------------------------|
|-0----------------0-0-----------------|
|-0----------------0-0---|
|-0----------------0-0-----------------|
PM                 .


Lead: This is played throught the chorus,
apart from when Rhythm, Part 4 is played,
then Lead Part 2 is played.
|----------------------------------------|
|----------------------------------------|
|----------------------------------------|
|----------------------------------------|
|----------------------------------------|
|-0-0-12-0-10-13-0-0-12-0-10-13-0-0-12-0-|

|-------------------------------------------|
|-------------------------------------------|
|-------------------------------------------|
|-------------------------------------------|
|-------------------------------------------|
|-0-0-12-0-10-13-0-0-12-0-10-13-15-15-15-15-|


Lead Part 2:
|-------------------------------|
|-------------------------------|
|-7-5-7-5-7-7-5-7-7-5-7-5-7-5-7-|
|-0-0-0-0-0-0-0-0-0-0-0-0-0-0-0-|
|-------------------------------|
|-------------------------------|

|-------------------------------|
|-------------------------------|
|-7-5-7-5-7-7-5-7--------|
|-0-0-0-0-0-0-0-0---------------|
|-------------------------------|
|-------------------------------|




Then play the Verse, but with different lead:
|-------------------------------|
|-------------------------------|
|-7-7-7-7---7-7---7-7-7-7-7-7-7-| x2
|-0-0-0-0---0-0---0-0-0-0-0-0-0-|
|-------------------------------|
|-------------------------------|

|-------------------------------|
|-------------------------------|
|-9-9-9-9---9-9---9-9-9-9-9-9-9-| x2
|-0-0-0-0---0-0---0-0-0-0-0-0-0-|
|-------------------------------|
|-------------------------------|

|---------------------------------|
|(Same strumming pattern as above)|
|-10-10-10-10-10-10-10-10-10-10---| x2
|-0--0--0--0--0--0--0--0--0--0----|
|---------------------------------|
|---------------------------------|

|---------------------------------|
|(Same strumming pattern as above)|
|-12-12-12-12-12-12-12-12-12-12---| x2
|-0--0--0--0--0--0--0--0--0--0----|
|---------------------------------|
|---------------------------------|

|---------------------------------|
|(Same strumming pattern as above)|
|-14-14-14-14-14-14-14-14-14-14---| x2
|-0--0--0--0--0--0--0--0--0--0----|
|---------------------------------|
|---------------------------------|

|---------------------------------|
|(Same strumming pattern as above)|
|-12-12-12-12-12-12-12-12-12-12---| x2
|-0--0--0--0--0--0--0--0--0--0----|
|---------------------------------|
|---------------------------------|

|---------------------------------|
|(Same strumming pattern as above)|
|-14-14-14-14-14-14-14-14-14-14---| x2
|-0--0--0--0--0--0--0--0--0--0----|
|---------------------------------|
|---------------------------------|

|---------------------------------|
|(Same strumming pattern as above)|
|-17-17-17-19-19-19-19-19-19-19---| 
|-0--0--0--0--0--0--0--0--0--0----|
|---------------------------------|
|---------------------------------|

|---------------------------------|
|(Same strumming pattern as above)|
|-19-19-19-19-19-19b20r19-19-19---|
|-0--0--0--0--0--0--0--0--0--0----|
|---------------------------------|
|---------------------------------|




Then play the Chorus.





Outro: This part has both guitars playing
the rhythm, but il tab out the piano bit 
for the lead guitar

Rhythm:
|---------------------|
|---------------------|
|---------------------| x2
|-0-----------1--1--1-|
|-0-----------1--1--1-|
|-0-----------1--1--1-|
PM            .  .  . 

|---------------------|
|---------------------|
|---------------------|
|-3-----------1--1--1-|
|-3-----------1--1--1-|
|-3-----------1--1--1-|
PM            .  .  . 

|---------------------|
|---------------------|
|---------------------|
|-0-----------1--1--1-|
|-0-----------1--1--1-|
|-0-----------1--1--1-|
PM            .  .  . 



Lead: Rest for the first bar
|--------------------------|
|--------------------------|
|---------------------7----|
|-0-7-8-7--6-7-6--5-6------|
|--------------------------|
|--------------------------|

|---------------------------|
|---------------------------|
|---------------------7-8-7-|
|-0-7-8-7--6-7-6--5-6-------|
|---------------------------|
|---------------------------|

|--------------------------|
|--------------------------|
|---------------------7----|
|-0-7-8-7--6-7-6--5-6------|
|--------------------------|
|--------------------------|





TRACK 10: A MILLION MILES




INTRO:
Guitar 1: (slightly distorted)
E|--12----12----12----12----12----12----12----12--------------------------|
B|-----12----12----12----12----14----14----14----14--12---12---12---12----|
G|------------------------------------------------------9----9----9----9--|
D|------------------------------------------------------------------------|
A|------------------------------------------------------------------------|
D|------------------------------------------------------------------------|

		       x2
E|----------------------|--0~---------------------------------------------|
B|-10---10---10---10----|-------------------------------------------------|
G|----9----9----9----9--|-------------------------------------------------|
D|----------------------|-------------------------------------------------|
A|----------------------|-------------------------------------------------|
D|----------------------|-------------------------------------------------|


Alternatively, on the second repeat at the end, because the violins make the 
riff sound as if it goes down even lower in pitch, replace the "10,9" riff 
with this:
E|---------------------0~-------------------------------------------------|
B|-10---10----9----9------------------------------------------------------|
G|----9----9----9----9----------------------------------------------------|
D|------------------------------------------------------------------------|
A|------------------------------------------------------------------------|
D|------------------------------------------------------------------------|


Guitar 2: (Distorted)			   x2
E|------------------------------------------|-----------------------------|
B|------------------------------------------|-----------------------------|
G|------------------------------------------|-----------------------------|
D|--4~--------0~--------9~--------7~--------|--4~-------------------------|
A|--4~--------0~--------9~--------7~--------|--4~-------------------------|
D|--4~--------0~--------9~--------7~--------|--4~-------------------------|


VERSE:
Guitar 2:
			x3		Guitar 1 comes in here:
E|-----------------------|-----------|------------------------------------|
B|-----------------------|-----------|------------------------------------|
G|-----------------------|-----------|------------------------------------|
D|--4-4-4-4--4*-4*-4*-4*-|--4-4-4-4--|--4-4-4-4-4-4-4-4-6-6-6-6-6-6-6-6-6-|
A|--4-4-4-4--4*-4*-4*-4*-|--4-4-4-4--|--4-4-4-4-4-4-4-4-6-6-6-6-6-6-6-6-6-|
D|--4-4-4-4--4*-4*-4*-4*-|--4-4-4-4--|--4-4-4-4-4-4-4-4-6-6-6-6-6-6-6-6-6-|

									 x4
E|------------------------------------------------------------------------|
B|------------------------------------------------------------------------|
G|------------------------------------------------------------------------|
D|-7-7-7-7-7-7-7-7-11-11-11-11-11-11-11-11--------------------------------|
A|-7-7-7-7-7-7-7-7-11-11-11-11-11-11-11-11--------------------------------|
D|-7-7-7-7-7-7-7-7-11-11-11-11-11-11-11-11--------------------------------|


Guitar 1: Comes in (where marked above) on 1st note played in that section.

	 (Guitar 1 plays part of Guitar 2's riff but it is slightly higher in 
	  pitch, so it is most likely an extra string used.  I think I found 
	  the right pitch but i only put it on 1 string.  
		If you find that there is a noticible difference then play 
	  Guitar 2's riff with an added G string at frets 6,8,9,13 (same structure)

E|------------------------------------------------------------------------|
B|------------------------------------------------------------------------|
G|------------------------------------------------------------------------|
D|------------------------------------------------------------------------|
A|-9-9-9-9-9-9-9-9-11-11-11-11-11-11-11-11-12-12-12-12-12-12-12-12-16-16--|
D|------------------------------------------------------------------------|

E|------------------------------------------------------------------------|
B|------------------------------------------------------------------------|
G|--------------------------11~------9~-----------------------------------|
D|-----------------------11-------11--------------------------------------|
A|-16-16-16-16-16-16---9--------9-------9-9-9-9-9-9-9-9-11-11-11-11-11-11-|
D|------------------------------------------------------------------------|

E|------------------------------------------------------------------------|
B|------------------------------------------------------------------9-----|
G|-------------------------------------------------------11~------9--9--9-|
D|----------------------------------------------------11-------11-----11--|
A|-11-11-12-12-12-12-12-12-16-16-16-16-16-16-16-16--9--------9------------|
D|------------------------------------------------------------------------|

E|------------------------------------------------------------------------|
B|-9----------12-9------9-9-9-9---9----------12-9------9-9-9-9~-----------|
G|---9--9--9-9----9---9-------------9--9--9-9----9--9------------------11~|
D|----11-11--------11----------------11-11--------11----------------11----|
A|----------------------------------------------------------------9-------|
D|------------------------------------------------------------------------|

E|------------------------------------------------------------------------|
B|--------9---------------------------------------------------------------|
G|------9--(9)------------------------------------------------------------|
D|---11-------------------------------------------------------------------|
A|-9-----------9-9-9-9-9-9-9-9-11-11-11-11-11-11-11-11-12-12-12-12-12-12--|
D|------------------------------------------------------------------------|

E|------------------------------------------------------------------------|
B|-------------------------------9----------------------------------------|
G|---------------------------------9---9-9--9~----------------------------|
D|-----------------------------------11---11------------------------------|
A|-12-12-16-16-16-16-16-16-16-16------------------------------------------|
D|------------------------------------------------------------------------|



CHORUS:
Guitar 2: (Distortion)
E|------------------------------------------------------------------------|
B|------------------------------------------------------------------------|
G|------------------------------------------------------------------------|
D|-4~------7~------2~------7~--9~------4~------7~------2~------7-7-7-9-12-|
A|-4~------7~------2~------7~--9~------4~------7~------2~------7-7-7-9-12-|
D|-4~------7~------2~------7~--9~------4~------7~------2~------7-7-7-9-12-|

E|------------------------------------------------------------------------|
B|------------------------------------------------------------------------|
G|------------------------------------------------------------------------|
D|-4-4-4-x-4---7~------2-2-2-x-2---7~--9~------4-4-4-x-4---7~------2-2-2-x|
A|-4-4-4-x-4---7~------2-2-2-x-2---7~--9~------4-4-4-x-4---7~------2-2-2-x|
D|-4-4-4-x-4---7~------2-2-2-x-2---7~--9~------4-4-4-x-4---7~------2-2-2-x|

E|------------------------------------------------------------------------|
B|------------------------------------------------------------------------|
G|------------------------------------------------------------------------|
D|-2---7-7-7-9-12---------------------------------------------------------|
A|-2---7-7-7-9-12---------------------------------------------------------|
D|-2---7-7-7-9-12---------------------------------------------------------|

Guitar 1: (Distorted like before - carries on from the last part played in their
	   verse riff. NOTE the 11th fret kinda gives the muted-string effect 
	   heard, but you could mute the string on that fret slightly instead.)
E|------------------------------------------------------------------------|
B|-9-------12--9------9-9--9-------12-9-9-12h14--12--9-------12--9------9-|
G|--9--9--9-----9--9--------9--9--9----9--------9-----9--9--9-----9--9----|
D|---11-11-------11-11-------11-11---------------------11-11-------11-11--|
A|------------------------------------------------------------------------|
D|------------------------------------------------------------------------|

E|------------------------------------------------------------------------|
B|-9--9----------------------(9)-----------12-9---12-12-(12)--9---------12|
G|-----9--9---------------------9--9--9-9-9----9-9---------------9--9--9--|
D|------11-11-11--7-7-7-9-12-----11-11-------------------------11-11-11---|
A|----------------7-7-7-9-12----------------------------------------------|
D|----------------7-7-7-9-12----------------------------------------------|

E|------------------------------------------------------------------------|
B|-9---12h14-12h14--9---------12-9----9-9-9---9---------------------------|
G|--9------------------9--9--9-----9-9---------9--9-----------------------|
D|-------------------11-11-11-------------------11-11-11--7-7-7-9-12------|
A|--------------------------------------------------------7-7-7-9-12------|
D|--------------------------------------------------------7-7-7-9-12------|


VERSE 2:
Guitar 2: same as before

Guitar 1: basically same as before, slight difference in beginning so I tabbed
	  it out again.
E|------------------------------------------------------------------------|
B|------------------------------------------------------------------------|
G|--------11~------9~-----------------------------------------------------|
D|-----11-------11--------------------------------------------------------|
A|---9--------9-------9-9-9-9-9-9-9-9-11-11-11-11-11-11-11-11-12-12-12-12-|
D|------------------------------------------------------------------------|

E|------------------------------------------------------------------------|
B|-------------------------------------------------------9----------------|
G|---------------------------------------------11~------9-9---------------|
D|------------------------------------------11-------11-------------------|
A|-12-12-12-12-16-16-16-16-16-16-16-16----9--------9-------9-9-9-9-9-9-9-9|
D|------------------------------------------------------------------------|

E|------------------------------------------------------------------------|
B|------------------------------------------------------------------------|
G|------------------------------------------------------------------------|
D|------------------------------------------------------------------------|
A|-11-11-11-11-11-11-11-11-12-12-12-12-12-12-12-12-16-16-16-16-16-16-16-16|
D|------------------------------------------------------------------------|

E|------------------------------------------------------------------------|
B|----------------9-------9----------12-9------9-9-9-9---9----------12-9--|
G|------11~------9--9--9----9--9--9-9----9---9-------------9--9--9-9----9-|
D|---11-------11-----11------11-11--------11----------------11-11---------|
A|-9--------9-------------------------------------------------------------|
D|------------------------------------------------------------------------|

E|------------------------------------------------------------------------|
B|----9-9-9-9~-----------------9------------------------------------------|
G|--9----------------11~------9--(9)--------------------------------------|
D|11--------------11-------11---------------------------------------------|
A|--------------9--------9-----------9-9-9-9-9-9-9-9-11-11-11-11-11-11-11-|
D|------------------------------------------------------------------------|

E|------------------------------------------------------------------------|
B|----------------------------------------------------9-------------------|
G|------------------------------------------------------9---9--9-9~-------|
D|--------------------------------------------------------11-11-----------|
A|-11-12-12-12-12-12-12-12-12-16-16-16-16-16-16-16-16---------------------|
D|------------------------------------------------------------------------|

REPEAT CHORUS

BRIDGE: (violins but tabbed out for guitar)
Guitar 2:
E|------------------------------------------------------------------------|
B|------------------------------------------------------------------------|
G|------------------------------------------------------------------------|
D|--4~--------------------------------------------------------------------|
A|--4~--------------------------------------------------------------------|
D|--4~--------------------------------------------------------------------|


Guitar 1:
E|-12----12----12----12----12----12----12----12-------19----19----19----19|
B|----12----12----12----12----14----14----14----14-14----14----14----14---|
G|------------------------------------------------------------------------|
D|------------------------------------------------------------------------|
A|------------------------------------------------------------------------|
D|------------------------------------------------------------------------|


E|----17----17----17----17-12----12----12----12----12----12----12----12---|
B|-14----14----14----14-------12----12----12----12----14----14----14----14|
G|------------------------------------------------------------------------|
D|------------------------------------------------------------------------|
A|------------------------------------------------------------------------|
D|------------------------------------------------------------------------|

E|----19----19----19----19----17----17------------------------------------|
B|-14----14----14----14----14----14------9-------------9------------------|
G|----------------------------------------9--9-9--9~----9--9-9-9-9~-------|
D|-----------------------------------------11---11-------11---------------|
A|------------------------------------------------------------------------|
D|------------------------------------------------------------------------|

REPEAT CHORUS


BREAK:
Both Guitars: (listen for timing)
E|------------------------------------------------------------------------|
B|------------------------------------------------------------------------|
G|------------------------------------------------------------------------|
D|--0-0-0---0-0---4~-4-x-4-4---2-2-2---2-2---\7-9~--0-0-0---0-0---4~-4-x-4|
A|--0-0-0---0-0---4~-4-x-4-4---2-2-2---2-2---\7-9~--0-0-0---0-0---4~-4-x-4|
D|--0-0-0---0-0---4~-4-x-4-4---2-2-2---2-2---\7-9~--0-0-0---0-0---4~-4-x-4|

E|------------------------------------------------------------------------|
B|------------------------------------------------------------------------|
G|------------------------------------------------------------------------|
D|-4---2-2-2---2-2---7-9-12-----------------------------------------------|
A|-4---2-2-2---2-2---7-9-12-----------------------------------------------|
D|-4---2-2-2---2-2---7-9-12-----------------------------------------------|


Guitar 2:
E|------------------------------------------------------------------------|
B|------------------------------------------------------------------------|
G|------------------------------------------------------------------------|
D|-4~------7~------2~------7~--9~------4~------7~------2~------7-7-7-9-12-|
A|-4~------7~------2~------7~--9~------4~------7~------2~------7-7-7-9-12-|
D|-4~------7~------2~------7~--9~------4~------7~------2~------7-7-7-9-12-|

Guitar 1:
E|------------------------------------------------------------------------|
B|-9-------12-9-9--9-9---9-9--------12-9----12h14-12h14--9-------12-9-9--9|
G|--9--9--9-----------------9--9--9-----9-9---------------9--9--9---------|
D|---11-11-------11----------11-11-------------------------11-11-------11-|
A|------------------------------------------------------------------------|
D|------------------------------------------------------------------------|

									x12 
E|----------------------------|-------------------------------------------|
B|-9---9-9--------12-9--------|--9-------------9--------------------------|
G|--------9--9--9-----9--9----|---9--9-9--9~----9--9-9-9-9~---------------|
D|---------11-11-------11-11--|----11---11-------11-----------------------|
A|----------------------------|-------------------------------------------|
D|----------------------------|-------------------------------------------|





TRACK 11: LAST SUMMER 




Intro (Lead):
|-0-0-0-7-0-5-0-3-0-0-0-0-3-0-5h7-|
|---------------------------------|
|---------------------------------|
|---------------------------------|
|---------------------------------|
|---------------------------------|
PM. . .   .   . . . . . . . .

Intro (Rhythm): This comes in after the Lead is 
played a few times
|----------------|
|----------------|
|-------12-11-7--|
|-------9--9--5--|
|-7-7-7----------|
|----------------|



Verse (Lead): 
|-----------------------------------------------------------------|
|-----3---3-----------3---3-----------3---3-----------3---3-------|
|---0---------------0---------------0---------------0-------0-----|
|-5---------5---5-5---------5---5-4---------4---4-5-------------5-|
|-----------------------------------------------------------------|
|-----------------------------------------------------------------|

Verse (Rhythm): This is played after a few times of the Lead part
|------------------------|
|------------------------|
|-5--------------7-------|
|-5------5-------7-------|
|-3------5-------5-------|
|--------5---------------|



Pre-Chorus (Both Guitars):
|-----------------------------------------|
|-----------------------------------------|
|-----------------------------------------|
|-5-5-5-5-5-5-5-5-5-5-5-5-5-5-5-5-5-5-5-5-|
|-3-3-3-3-3-3-3-3-3-3-2-2-2-2-2-2-2-2-3-3-|
|-----------------------------------------|
PM. . . . . . . . . . . . . . . . . . . .



Chorus (Lead): Play this throught the chorus, 
listen for the timing
|--------5---5-|
|--------3---3-|
|--------------|
|--------------|
|--------------|
|--------------|

Chorus (Rhythm):
|-----------------------------------------------------------------|
|-----------------------------------------------------------------|
|-7-7-7-7-7-7-7-7-4-4-4-4-4-4-4-4-5-5-5-5-5-5-5-5-5-5-5-5-5-5-5-5-|
|-7-7-7-7-7-7-7-7-4-4-4-4-4-4-4-4-5-5-5-5-5-5-5-5-5-5-5-5-5-5-5-5-|
|-5-5-5-5-5-5-5-5-2-2-2-2-2-2-2-2-3-3-3-3-3-3-3-3-3-3-3-3-3-3-3-3-|
|-----------------------------------------------------------------|



Then play the Intro for a bit



Then play the Verse for the normal length



Then play the Pre-Chorus



Then play the Chorus



Then play the Intro again



Solo Pt.1 (Lead): At this point its just Lead and bass
|----------------------------15--14----|
|-/15-15-15-15----------------------15-|
|--------------14----------------------| x3
|-----------------17--17-17------------|
|--------------------------------------|
|--------------------------------------|

|-15-14-----15-14-----17-14----19-14----|
|-------15--------15--------15-------15-|
|---------------------------------------|
|---------------------------------------|
|---------------------------------------|
|---------------------------------------|


After the first part of the solo is played, this section
comes next:

Rhythm: This part is played when all of the above solo
has been played once.
Im sure the first chord is right, but not sure about 
the rest.
|-0--------------------------|
|-5--------------------------|
|-4--------5--------4--------|
|-2--------5--------4--------|
|-2--------3--------2--------|
|----------------------------|

Lead:
|----------------------------15--14----|
|-/15-15-15-15----------------------15-|
|--------------14----------------------| x2
|-----------------17--17-17------------|
|--------------------------------------|
|--------------------------------------|

|---------------------------------------------------------------------------|
|-15b17r15--15b17r15--15b17r15--15b17r15------------------------------------|
|-----------------------------------------14b16r14--14b16r14----------------|
|------------------------------------------------------------17-16-17-16----|
|------------------------------------------------------------------------17-|
|---------------------------------------------------------------------------|



After that, the Rhythm plays the chorus untill the end with
this playing over the top:
|----------------------------15--14----|
|-/15-15-15-15----------------------15-|
|--------------14----------------------|
|-----------------17--17-17------------|
|--------------------------------------|
|--------------------------------------|
Repeat this untill the end.



End on:
|-----|
|-----|
|-7---|
|-7---|
|-5---|
|-----|




TRACK 12: WE ARE GODZILLA YOU ARE JAPAN




Intro Riffs (guitar only)

|-----------------------------
|-----------------------------
|---4b----4b----4b------------
|-2---2-3---3-5---5-00-0-0-0--
|-2---2-3---3-5---5-00-0-0-0--
|-2---2-3---3-5---5-00-0-0-0--
                    .. . . .

|--------------------------------
|--------------------------------
|---4b----4b----4b---------------
|-2---2-3---3-5---5-00-00-00-00--
|-2---2-3---3-5---5-00-00-00-00--
|-2---2-3---3-5---5-00-00-00-00--
                    .. .. .. ..

Main Riffs/Chorus (with drums and bass)

|-------------------------------
|-------------------------------
|---4b-----4b-----4b------------
|-2---2-33---3-55---5-00-0-0-0--
|-2---2-33---3-55---5-00-0-0-0--
|-2---2-33---3-55---5-00-0-0-0--
                      .. . . .

|-------------------------------
|-------------------------------
|---4b-----4b-----4b------------
|-2---2-33---3-55---5-00-0-0-0--
|-2---2-33---3-55---5-00-0-0-0--
|-2---2-33---3-55---5-00-0-0-0--
                      .. . .

|-------------------------------
|-------------------------------
|---4b-----4b-----4b------------
|-2---2-33---3-55---5-00-0-0-0--
|-2---2-33---3-55---5-00-0-0-0--
|-2---2-33---3-55---5-00-0-0-0--
                      .. . . .

|-----------------------------------
|-----------------------------------
|---4b-----4b-----4b----------------
|-2---2-33---3-55---5-00-0-0-0-5-2--
|-2---2-33---3-55---5-00-0-0-0-5-2--
|-2---2-33---3-55---5-00-0-0-0-5-2--
                      .. . . .

Verse

|-------------------------
|-------------------------
|-------------------------
|-2202-------55-55-00-00--
|-2202-------55-55-00-00--
|-2202-------55-55-00-00--

Break

|---------------------------------
|---------------------------------
|---------------------------------
|---------------------------------
|---------------------------------
|22222222333333335555555500000000-

|-------------------------------------------
|-------------------------------------------
|-------------------------------------------
|-------------------------------------------
|-------------------------------------------
|222222223333333355555555111-111-111-111-11-

Other Riff

|----------
|----------
|----------
|-00-0-0-0-
|-00-0-0-0-
|-00-0-0-0-
  .. . . .


For the outro just play the break section as fast as possible.




TRACK 13: SWAY



Guitar 1: Delayed (2nd and 3rd repeats fade out slightly)
	  The brackets are notes that are heard quietly in the background.
									 x5
E|---------------------(3)-------------(5)-------------(5)----------------|
B|------------------------------------------------------------------------|
G|------------------------------------------------------------------------|
D|------------------------------------------------------------------------|
A|------------------------------------------------------------------------|
D|----3---------------5---------------7---------------7-------------------|

OVERLAY: This is that cool electronic sound you hear after the 1st repeat of
	 Guitar 1's riff above.  You need DELAY on for this.

Guitar 2: (could FINGER-PICK this as there won't be anything else 4 them to play
	   yet.  They can only play it 3 times b4 going into the verse riff)

E|----------------------------------------17------------------------------|
B|-17-19---------------17---19--------19-----19------------------17h19----|
G|-------16-19---16------------16-19----16------16-19--19---16--------19p-|
D|-------------------16----------------------------------16---------------|
A|------------------------------------------------------------------------|
D|------------------------------------------------------------------------|

									 x4
E|------------------------------------------------------------------------|
B|------------------------------------------------------------------------|
G|-16---16-19-16----------------------------------------------------------|
D|---------------16-------------------------------------------------------|
A|------------------------------------------------------------------------|
D|------------------------------------------------------------------------|

 

VERSE:
Guitar 2: (Guitar 1 will still be playing the intro riff)

E|--------------------15--------------------------------------------------|
B|--------13-15-17~-----15~----13~----15-------------13-15----------------|
G|---14-16------------------------------14~-----14-16-----14~---16~---14~-|
D|-14------------------------------------------14-------------------------|
A|------------------------------------------------------------------------|
D|------------------------------------------------------------------------|


PRE-CHORUS:

Guitar 1:
E|--------------------------19-19--17~---15-----------------------------19|
B|----------------------17------------------17~---------------------17----|
G|------------------------------------------------------------------------|
D|--3~------5~------7~--------------------------3~------5~------7~--------|
A|--3~------5~------7~--------------------------3~------5~------7~--------|
D|--3~------5~------7~--------------------------3~------5~------7~--------|

E|-19--17~--20~-------------------------19-19--17~---15-------------------|
B|----------------------------------17------------------17~---------------|
G|------------------------------------------------------------------------|
D|--------------3~------5~------7~----------------------------3~------5~--|
A|--------------3~------5~------7~----------------------------3~------5~--|
D|--------------3~------5~------7~----------------------------3~------5~--|

E|-----------19-19--17----------------------------------------------------|
B|-------17---------------------------------------------------------------|
G|------------------------------------------------------------------------|
D|----7~------------------------------------------------------------------|
A|----7~------------------------------------------------------------------|
D|----7~------------------------------------------------------------------|


Guitar 2: Will come in on the last 19 played on the 1st bar of Guitar 1's pre-chorus.

	  Heavy Distortion and all PALM MUTED.  Listen to the CD for the 
	  "breaks of play" on the -3-5-7- chords where nothing is played.
E|------------------------------------------------------------------------|
B|------------------------------------------------------------------------|
G|------------------------------------------------------------------------|
D|--7-7-7-5-5-5-5-5----3-3-3-3-3-3---5-5-5-5-5-5-5-5---7-7-7-7-7-7-7-7--7-|
A|--7-7-7-5-5-5-5-5----3-3-3-3-3-3---5-5-5-5-5-5-5-5---7-7-7-7-7-7-7-7--7-|
D|--7-7-7-5-5-5-5-5----3-3-3-3-3-3---5-5-5-5-5-5-5-5---7-7-7-7-7-7-7-7--7-|

E|-----------------------------5-5-5.------------------5.-----------------|
B|-----------------------------5-5-5.------------------5.-----------------|
G|-----------------------------7-7-7.------------------7.-----------------|
D|-7-7-7-7-7-7-7---3-3-3-3-3-3-7-7-7.--5-5-5-5-5-5-5-5-7.---7-7-7-7-7-7-7-|
A|-7-7-7-7-7-7-7---3-3-3-3-3-3---------5-5-5-5-5-5-5-5------7-7-7-7-7-7-7-|
D|-7-7-7-7-7-7-7---3-3-3-3-3-3---------5-5-5-5-5-5-5-5------7-7-7-7-7-7-7-|

E|---5-5-5.-------------------------5~------------------------------------|
B|---5-5-5.----------------------5~---------------------------------------|
G|---7-7-7.-------------------7~------------------------------------------|
D|-7-7-7-7.--7-7-7-7-7-7-7-7----------------------------------------------|
A|-7---------7-7-7-7-7-7-7-7----------------------------------------------|
D|-7---------7-7-7-7-7-7-7-7----------------------------------------------|



CHORUS:
Guitar 1: Go straight into chorus from the verse riff above (first 3 notes will
	  sound like Guitar 2's last 3 notes played above, but a lot higher)

E|-------17-19------19--------19------19-----------------------17---------|
B|-17-19------17-19----19~------17-19----19~----17-19~---17-19---19-17-19-|
G|------------------------------------------------------------------------|
D|------------------------------------------------------------------------|
A|------------------------------------------------------------------------|
D|------------------------------------------------------------------------|

					Turn on Delay for the 17 slide down
E|--19------19-------19------19-----------------------17------------------|
B|----17-19----19~-----17-19----19~----17-19~---17-19---19-17-19-17\------|
G|------------------------------------------------------------------------|
D|------------------------------------------------------------------------|
A|------------------------------------------------------------------------|
D|------------------------------------------------------------------------|

Guitar 2: I don't think they play anything here but they could play the rhythm
	  again.  They want to be CLEAN and quiet with the notes.
									 x2
E|------------------------------------------------------------------------|
B|------------------------------------------------------------------------|
G|-----------------------------------------------------9-9-9-9-9-9-9-9-9--|
D|--3-3-3-3-3-3-3-3--5-5-5-5-5-5-5-5--7-7-7-7-7-7-7-7--9-9-9-9-9-9-9-9-9--|
A|--3-3-3-3-3-3-3-3--5-5-5-5-5-5-5-5--7-7-7-7-7-7-7-7--7-7-7-7-7-7-7-7-7--|
D|--3-3-3-3-3-3-3-3--5-5-5-5-5-5-5-5--7-7-7-7-7-7-7-7---------------------|


POST-CHORUS:
Guitar 1: Acoustic Sound + Delay (will be previously on from the 17 slide down) 
E|------------------------------------------------------------------------|
B|------------------------------------------------------------------------|
G|------------------------------------------------------------------------|
D|----5-5-5/7----7-7-7/9----9-9-9/10----10-10-10/12-(7)----5-5-5/7----7-7-|
A|------------------------------------------------------------------------|
D|--3----------5----------7-----------7------------------3----------5-----|

									 x2
E|------------------------------------------------------------------------|
B|------------------------------------------------------------------------|
G|------------------------------------------------------------------------|
D|-7/9----9-9-9/10----10-10-10\9--9--9\7----------------------------------|
A|------------------------------------------------------------------------|
D|------7-----------7-----------------------------------------------------|

Guitar 2: just needs Acoustic sound (note that Guitar 1 and 2's bass notes are
				     played at the same time)
E|------------------------------------------------------------------------|
B|--------8~--------------------8~----------------------------------------|
G|----------7~--------------------7~--------------------------------------|
D|------------------------------------------------------------------------|
A|------------------------------------------------------------------------|
D|--3~--------------------7~----------------------------------------------|


VERSE:
Guitar 2: (Guitar 1 will be playing the last section of their post-chorus riff)
E|--------------------15--------------------------------------------------|
B|--------13-15-17~-----15~----13~----15-------------13-15----------------|
G|---14-16------------------------------14~-----14-16-----(14~)-----------|
D|-14------------------------------------------14-------------------------|
A|------------------------------------------------------------------------|
D|------------------------------------------------------------------------|


PRE-CHORUS:
Guitar 1:
E|--------------------------19-19--17~---15-----------------------------19|
B|----------------------17------------------17~---------------------17----|
G|------------------------------------------------------------------------|
D|--3~------5~------7~--------------------------3~------5~------7~--------|
A|--3~------5~------7~--------------------------3~------5~------7~--------|
D|--3~------5~------7~--------------------------3~------5~------7~--------|

E|-19--17~--20~-------------------------19-19--17~---15-------------------|
B|----------------------------------17------------------17~---------------|
G|------------------------------------------------------------------------|
D|--------------3~------5~------7~----------------------------3~------5~--|
A|--------------3~------5~------7~----------------------------3~------5~--|
D|--------------3~------5~------7~----------------------------3~------5~--|

E|-----------19-19--17----------------------------------------------------|
B|-------17---------------------------------------------------------------|
G|------------------------------------------------------------------------|
D|----7~------------------------------------------------------------------|
A|----7~------------------------------------------------------------------|
D|----7~------------------------------------------------------------------|


Guitar 2: This time Guitar 2 comes in straight away with Guitar 1.

	  Heavy Distortion and all PALM MUTED.  Listen to the CD for the 
	  "breaks of play" on the -3-5-7- chords where nothing is played.
E|------------------------------------------------------------------------|
B|------------------------------------------------------------------------|
G|------------------------------------------------------------------------|
D|--3-3-3-3-3-3---5-5-5-5-5-5-5-5---7-7-7-7-7-7-7-7---7-7-7-7-7-7-7-7---3-|
A|--3-3-3-3-3-3---5-5-5-5-5-5-5-5---7-7-7-7-7-7-7-7---7-7-7-7-7-7-7-7---3-|
D|--3-3-3-3-3-3---5-5-5-5-5-5-5-5---7-7-7-7-7-7-7-7---7-7-7-7-7-7-7-7---3-|

E|-----------5-5-5.------------------5.------------------5-5-5.-----------|
B|-----------5-5-5.------------------5.------------------5-5-5.-----------|
G|-----------7-7-7.------------------7.------------------7-7-7.-----------|
D|-3-3-3-3-3-7-7-7.--5-5-5-5-5-5-5-5-7.--7-7-7-7-7-7-7-7-7-7-7.--7-7-7-5-5|
A|-3-3-3-3-3---------5-5-5-5-5-5-5-5-----7-7-7-7-7-7-7-7---------7-7-7-5-5|
D|-3-3-3-3-3---------5-5-5-5-5-5-5-5-----7-7-7-7-7-7-7-7---------7-7-7-5-5|

E|-------5.---------------------------------------------------------------|
B|-------5.---------------------------------------------------------------|
G|-------7.---------------------------------------------------------------|
D|-5-5-5-7.---3-3-3-3-3-3---5-5-5-5-5-5-5-5---7-7-7-7-7-7-7-7--7-7-7-7-7-7|
A|-5-5-5------3-3-3-3-3-3---5-5-5-5-5-5-5-5---7-7-7-7-7-7-7-7--7-7-7-7-7-7|
D|-5-5-5------3-3-3-3-3-3---5-5-5-5-5-5-5-5---7-7-7-7-7-7-7-7--7-7-7-7-7-7|

E|-------------------5-5-5.------------------5.-------------------5-5-5.--|
B|-------------------5-5-5.------------------5.-------------------5-5-5.--|
G|-------------------7-7-7.------------------7.-------------------7-7-7.--|
D|-7-7---3-3-3-3-3-3-7-7-7.--5-5-5-5-5-5-5-5-7.---7-7-7-7-7-7-7-7-7-7-7.--|
A|-7-7---3-3-3-3-3-3---------5-5-5-5-5-5-5-5------7-7-7-7-7-7-7-7---------|
D|-7-7---3-3-3-3-3-3---------5-5-5-5-5-5-5-5------7-7-7-7-7-7-7-7---------|

E|-----------5-5-5--------5~----------------------------------------------|
B|-----------5-5-5-----5~-------------------------------------------------|
G|-----------7-7-7--7~----------------------------------------------------|
D|-7-7-7-7-7-7-7-7--------------------------------------------------------|
A|-7-7-7-7-7--------------------------------------------------------------|
D|-7-7-7-7-7--------------------------------------------------------------|


CHORUS:
Guitar 1:
E|-------17-19------19--------19------19-----------------------17---------|
B|-17-19------17-19----19~------17-19----19~----17-19~---17-19---19-17-19-|
G|------------------------------------------------------------------------|
D|------------------------------------------------------------------------|
A|------------------------------------------------------------------------|
D|------------------------------------------------------------------------|


E|--19------19-------19------19-----------------------17-------------19---|
B|----17-19----19~-----17-19----19~----17-19~---17-19---19-17-19-------17-|
G|------------------------------------------------------------------------|
D|------------------------------------------------------------------------|
A|------------------------------------------------------------------------|
D|------------------------------------------------------------------------|

E|----19--------19------19-----------------------17------------19------19-|
B|-19----19~------17-19----19~----17-19~---17-19---19-17-19------17-19----|
G|------------------------------------------------------------------------|
D|------------------------------------------------------------------------|
A|------------------------------------------------------------------------|
D|------------------------------------------------------------------------|

					Turn on Delay for the 17 slide down
E|--------19------19------------------------17----------------------------|
B|-19~------17-19----19~----17-19~----17-19---19-17-19-17\----------------|
G|------------------------------------------------------------------------|
D|------------------------------------------------------------------------|
A|------------------------------------------------------------------------|
D|------------------------------------------------------------------------|


Guitar 2: Same technique as before - quiet and clean but for the 3rd and 4th
	  repeats in needs to be QUIET and DISTORTED.
								 	 x4
E|------------------------------------------------------------------------|
B|------------------------------------------------------------------------|
G|-----------------------------------------------------9-9-9-9-9-9-9-9-9--|
D|--3-3-3-3-3-3-3-3--5-5-5-5-5-5-5-5--7-7-7-7-7-7-7-7--9-9-9-9-9-9-9-9-9--|
A|--3-3-3-3-3-3-3-3--5-5-5-5-5-5-5-5--7-7-7-7-7-7-7-7--7-7-7-7-7-7-7-7-7--|
D|--3-3-3-3-3-3-3-3--5-5-5-5-5-5-5-5--7-7-7-7-7-7-7-7---------------------|



ENDING:
Guitar 2: needs Acoustic sound
									 
E|------------------------------------------------------------------------|
B|----------0~------------0~------------0~------------8-----------------0~|
G|--------5-------------5-------------5-------------5---5-------------5---|
D|-1-1/3---------3-3/5---------5-5/7---------5-5/7--------7~---1-1/3------|
A|------------------------------------------------------------------------|
D|------------------------------------------------------------------------|

						 x3   Volume fades out   x5
E|------------------------------------------------|-----------------------|
B|------------0~------------0~------------8-------|------------0~---------|
G|----------5-------------5-------------5---5-----|----------5------------|
D|---3-3/5---------5-5/7-------------7--------7~--|---1-1/3---------------|
A|------------------------------------------------|-----------------------|
D|------------------------------------------------|-----------------------|


Guitar 1: This is the intro repeated again but there is an overlay which is
	  represented by the low 7th fret chords.  The overlay is distorted
	  and Palm Muted. 
									 x2
E|--------------------(3)-------------(5)------------(5)------------------|
B|------------------------------------------------------------------------|
G|------------------------------------------------------------------------|
D|-----------(7-7)------(7-7)---------------(7-7)------(7-7)--------------|
A|-----------(7-7)------(7-7)---------------(7-7)------(7-7)--------------|
D|----3------(7-7)----5-(7-7)---------7-----(7-7)----7-(7-7)--------------|

E|------------------------------------------------------------------------|
B|------------------------------------------------------------------------|
G|------------------------------------------------------------------------|
D|----5-5-5/7----7-7-7/9----9-9-9/10----10-10-10/12-(7)----5-5-5/7----7-7-|
A|------------------------------------------------------------------------|
D|--3----------5----------7-----------7------------------3----------5-----|

					  Volume fades out here		 x5
E|---------------------------------------|--------------------------------|
B|---------------------------------------|--------------------------------|
G|---------------------------------------|--------------------------------|
D|-7/9----9-9-9/10----10-10-10\9--9--9\7-|----5-5-5/7---------------------|
A|---------------------------------------|--------------------------------|
D|------7-----------7--------------------|--3-----------------------------|
Comments